Song name
# A B C D E F G H I J K L M N O P Q R S T U V W X Y Z

John Butler Trio - Revolution tab

-------------------------------------------------------------------------------
			     Revolution - John Butler Trio
-------------------------------------------------------------------------------
Tabbed by: chucky176
Email: torge.santjer@gmail.com

Tuning: Standard


Intro (with Loop something like this)

e|---------------------------------------------------------------------------|
B|----------15------------15-------------------------------------------------|
G|--17--16--------17--12-----------------------------------------------------|
D|---------------------------------------------------------------------------|
A|---------------------------------------------------------------------------|
E|---------------------------------------------------------------------------|


Verse

    E  G  C  A

e|---------------------------------------------------------------------------|
B|---------------------------------------------------------------------------|
G|---------------------------------------------------------------------------|
D|--------5--2---------------------------------------------------------------|
A|--2--5--3--0---------------------------------------------------------------|
E|--0--3---------------------------------------------------------------------|


Chorus / Refrain

    C  G  D

e|--3--3--5------------------------------------------------------------------|
B|--3--3--5------------------------------------------------------------------|
G|--5--4--7------------------------------------------------------------------|
D|--5--5--7------------------------------------------------------------------|
A|--3--5--5------------------------------------------------------------------|
E|-----3---------------------------------------------------------------------|


Bridge

e|---------------------------------------------------------------------------|
B|---------------------------------------------------------------------------|
G|--16--16-~~----------------------------------------------------------------|
D|--16--16-~~----------------------------------------------------------------|
A|---------------------------------------------------------------------------|
E|---------------------------------------------------------------------------|

The solo was too hard to figure out cause of the effects like delay etc~
When i get the time ill add that later, but now relax this tab and raise your fist!
REVOLUTION!

************************************

| /   slide up
| \   slide down
| h   hammer-on
| p   pull-off
| ~   vibrato
| +   harmonic
| x   Mute note
| b   Bend
| pb  Pre-bend
| br  Bend release
| pbr Pre-bend release
| brb Bend release bend

************************************
Tap to rate this tab
# A B C D E F G H I J K L M N O P Q R S T U V W X Y Z