Song name
# A B C D E F G H I J K L M N O P Q R S T U V W X Y Z

John Butler Trio - Peaches And Cream tab

John Butler Trio- Peaches and Cream

This is my first Tab and I'm pretty sure it's Accurate

Tuning- D# G# C# F# A# d# Low to high- Tuned Down
       (E  A  D  G  B  e)
Intro-verse x11

----0---------3------------0-----------0-----------|
----0---------3------------3-----------0-----------|
----0---0-0---0----0-0-----0---0-------2-strum-----|
----2----2----0-----0------2--2-2-0----2-----------|
----2---------2---------3--3--------0--0-----------|
--0---0-----3----3------x--x--------x--x-----------|

Bridge x4            -      After the 4th time play:
---3-----------0-----2---------|-----0--------------|
---3-----------3-----3---------|-----0--------------|
---0-----------0-----2---------|-----2--------------|
---0-----------2-----0---------|-----2--------------|
---2-----------3-----x---------|-----0--------------|
---3-----------x-----x---------|-----x--------------|

Chorus x4                After the 4th time do this x1
---0----0----0----3------------|---0---3---0---0--------|
---3----0----0----3------------|---3---3---3---0--------|
---0----2----0----0------------|---0---0---0---2--------|
---2----2----2----0------------|---2---0---2---2--------|
---3----0----2----2------------|---3---2---3---0--------|
---x----x----0----3------------|---x---3---x---x--------|

Then: Verse, Bridge, and chorus again only straight after the chorus do the verse one 
time. Listen to the song to get the timing and picking right.
Enjoy!
Tap to rate this tab
 
# A B C D E F G H I J K L M N O P Q R S T U V W X Y Z