Song name
# A B C D E F G H I J K L M N O P Q R S T U V W X Y Z

John Butler Trio - Revolution tab

I do not pretend to have exact tab but at least I think proper tab can use the following 
as an inspiration for improvement. I dont like to write down tabs but i thought it was 
important to share correct tuning. Hope this helps.

Cheers

Tuning: C Open (CGCGCE)
E--------------------------------------------------------------------------|
C--------------------------------------------------------------------------|
G--------------------------------------------------------------------------|
C---4-----4-----4-----7-----7-----7-----0-----0-----0-----11----11----11---|
G---4-----4-----4-----7-----7-----7-----0-----0-----0-----9-----9-----9----|
C---4-x-x-4-x-x-4-x---7-x-x-7-x-x-7-x---0-x-x-0-x-x-0-x---9-x-x-9-x-x-9-x--|


There are 2 choruses

Chorus 1
E---0-----0-----0--------|
C---0-----0-----0--------|
G---0-----0-----0--------|
C---0-----7-----2--------|
G---0-----7-----2--------|
C---0-----7-----2--------|

Chorus 2 (used on a live version)
E---0-----0-----0--------|
C---0-----0-----0--------|
G---0-----0-----0--------|
C---0-----9-----4--------|
G---0-----9-----4--------|
C---0-----9-----4--------|


Solo1 somewhere
E-------------------------------------------------------------------|
C----4-2-4-6----4-6-7----7-6-9----7-9-11----11-11----12-11-14-------|
G-------------------------------------------------------------------|
C----4-2-4-6----4-6-7----7-6-9----7-9-11----11-11----12-11-14-------|
G-------------------------------------------------------------------|
C-------------------------------------------------------------------|
Solo2 somewhere
E---12--10--8--7------------------------12--10--8--7-------------|
C---0---0---0--0---7---~11--12--11------0---0---0--0---7---------|
G---0---0---0--0---x---~x---x---x-------0---0---0--0---x---------|
C------------------7---~11--12--11---------------------7---------|
G----------------------------------------------------------------|
C----------------------------------------------------------------|


i'm not good to write tab but at least my ears and eyes are sharps. Well, tend to be... 
I already see mistakes on what i wrote (damned).

I've noticed, all you guys might have already, that JB use an Ebow at the intro and a 
loopstation to mimic strings such like violins or cello...

He also uses it for the break after second chorus...
Cheers
Tap to rate this tab
# A B C D E F G H I J K L M N O P Q R S T U V W X Y Z