Song name
# A B C D E F G H I J K L M N O P Q R S T U V W X Y Z

John Butler Trio - Mystery Man tab

Tabbed by: lachy12

i have learned this piece by listening to the actual song. The tuning for it is, from 
top string to bottom string, C,G,D,G,B,E the capo goes on the second fret.

e|--------------------------------------------------------------------------|
B|--3-0-----------------0---------------------------------------------------|
G|------4--2p0----0-------0---0----------0h2p0-2h3/4p2p0-------0------------|
D|-------------h4---4-----------2--0h2h4------------------4--2--4--2--0-----|
G|--0------------------------------0----------------------------------------|
C|--------------------4-----2------------------0-------------4--------2-----|


e|--------------------------------------------------------------------------|
B|--3-0-----------------0---------------------------------------------------|
G|--0---4--2p0----0-------0---0----------0h2p0-2/4\2p0h2----0-------0-------|
D|-------------h4---4-----------2--0h2h4----------------------0-2-----0-----|
G|--0------------------------------0----------------------------------------|
C|--------------------4-----2------------------0----------4-------2---------|
Tap to rate this tab
# A B C D E F G H I J K L M N O P Q R S T U V W X Y Z