Song name
# A B C D E F G H I J K L M N O P Q R S T U V W X Y Z

John Butler Trio - Id Do Anything tab

I'd Do Anything by John Butler Trio

Capo: 6th fret
Slight distortion

Riff 1:
                           pick  ^                                     pick  ^  
E|------------------------|--------x------x--|----------------------|--------x------x--
B|--3h5--3--0--0h1p0------|--------x------x--|-0h3-0--0--0h1p0------|--------x------x--
G|----------0-------0h2p0-|-2----2-x------x--|-0h4-4--0-------0h2p0-|-2----2-x------x--
D|------------------------|-2----2-x--2---x--|----------------------|-2----2-x--2---x--
A|--3---------------------|-0----0-x--2---x--|-3--------------------|-0----0-x--2---x--
E|----------3-------------|--------x--0---x--|--------3-------------|--------x--0---x--



Riff 2:
                           pick  ^                                    
E|------------------------|--------x------x--|----------------------|------------------
B|--3h5--3--0--0h1p0------|--------x------x--|-0h3-0--0--0h1p0------|------------------
G|----------0-------0h2p0-|-2----2-x------x--|-0h4-4--0--------2--2-|-2--2--2-----2----
D|------------------------|-2----2-x--2---x--|-----------------2--2-|-2--2--2-----2----
A|--3---------------------|-0----0-x--2---x--|-3---------------0--0-|-0--0--0-----0----
E|----------3-------------|--------x--0---x--|--------3-------------|------------------


Chorus:
E|------------------------|----------------------|------------------------|----------------------
B|------------------------|----------------------|------------------------|----------------------
G|-------------3(4)-3p2p0-|----------------------|-------------3(4)-3p2p0-|----------------------
D|--2-2-2-2-2-------------|-5-5-5-5-5--7-7-7-7-7-|--2-2-2-2-2-------------|-5-5-5-5-5--7-7-7-7-7-
A|--2-2-2-2-2-------------|-5-5-5-5-5--7-7-7-7-7-|--2-2-2-2-2-------------|-5-5-5-5-5--7-7-7-7-7-
E|--0-0-0-0-0-------------|-3-3-3-3-3--5-5-5-5-5-|--0-0-0-0-0-------------|-3-3-3-3-3--5-5-5-5-5-


Intro
(Riff 1) x2

(Riff 1)
You tell me what you want girl
You tell me what you need
You know you just say the word
I'll be right there, yes I'll be right there at your feet

(Riff 1)
Because you know you rock girl, yeah
And I love how we roll
But I left you all alone, all we got is the phone
And itís never going to be enough

(Riff 1)
Living in this dug-out
A million miles away
Man, id wish they'd pad these walls
like an institution man I'm going a little crazy

(Riff 2)
Cause when I'm away from you girl
I lose myself
You know my train jumps off the tracks 
and all my pots fall off the shelf

(Chorus)
Oh, I'd do anything, yeah just to be with you
(Chorus)
Oh, I'd do anything, oh just to be with you 

(solo starts)
girl, be with you

E|------------------------------------|---------------------------------|
B|--3/5-3-----------------------------|--3/5-3--------------------------|
G|--------4-4-2h4p2p0-2/4-7-4\2p0---0-|---------4-4-2/4-7-4\2p0---0-----|
D|---------------------------------2--|-------------------------2---2-0-|
A|------------------------------------|---------------------------------|
E|------------------------------------|---------------------------------|

E|--------------------------------------|-7-5-3-----------------------|
B|--------------------------------------|-8-7-5-3-----3---------------|
G|--4-2-4-------4-----2-----4-----2p0---|-----------4---4\2p0---0-----|
D|--5-4-5-5-4/5---5\4---4/5---5\4-----4-|---------------------2-------|
A|--------------------------------------|-----------------------------|
E|--------------------------------------|-----------------------------|

(Riff 1)
It's a little girls birthday
And yeah, we are apart
Aint gonna make a big deal out of it
whatever It's no hard

(Riff 1)
You tell her papa loves her yeah
And It won't be too long
'Til we're all together again
and yes we're singing those songs

(Riff 1)
I escape into my T.V
I know you understand
Man, they call that shit reality
I'd like to see those fools in Afghanistan

(Riff 2)
Livin' In this cold damn world
Hell bent on self-destruction
What I need right now is a little bit of love
a little bit of love and affection

(Chorus)
Oh, I'd do anything... oh, just to be with you
(Chorus)
Oh, I'd do anything... oh, just to be with you, girl!

(Riff 1) x2

(Riff 1)
You tell me what you want girl, 
You tell me what you need
You know you just say the word
I'll be right there, yes I'll be right there at your feet
Tap to rate this tab
 
# A B C D E F G H I J K L M N O P Q R S T U V W X Y Z