Song name
# A B C D E F G H I J K L M N O P Q R S T U V W X Y Z

John Butler Trio - Spring To Come tab

-----------------------------------------------------------------------------
                    Spring To Come - John Butler Trio
-----------------------------------------------------------------------------

First of all I'd like to thank John Butler and his current and former bands for creating
such impressive, intense and beautiful music!

This tab only contains the awesome interlude and outro part because the other parts are
perfectly explained by John Butler himself in this video:
http://www.youtube.com/watch?v=RObn9QWYo-0
This tabs could be useful too:
http://www.guitarworld.com/acoustic-nation-video-lesson-play-it-now-john-butler-
teaches-us-play-spring-come

It was quite confusing to identify the timing of the melody along base-rhythm. I think I
finally figured it out correctly, so I thought: Let's share it!
If you have problems with the rhythm have a look at the video-link at the top. In the
end John plays the part really slowly, perhaps that helps you to get a feeling for the
timing. Also it is important to use the thumb for playing the base-notes G and D (or C
and D) in order to stick to the beat.
I hope there are no major mistakes in this tab nor my language, if else please use the
comment-section. :)

Tuning: C G D G b d

   1   +   2   +   3   +   4   +    1   +   2   +   3   +   4   +
d |--------------------------------|--------------------------------|
b |----------------1---0---------3~|----------------1---0---------0-|
G |----0h2-----0---------------0---|----0-------0---------------2---|
D |----0-------0-------0-------0---|----0-------0-------0-------0---|
G |0-------0-------0-------0-------|0-------0-------0-------0-------|
C |--------------------------------|--------------------------------|

This second half is almost the same just the base note changes from G to C.
   1   +   2   +   3   +   4   +    1   +   2   +   3   +   4   +
d |--------------------------------|--------------------------------|
b |----------------1---0---------3~|----------------1---0---------0-|
G |----0h2-----0---------------0---|----0-------0---------------2---|
D |----0-------0-------0-------0---|----0-------0-------0-------0---|
G |--------------------------------|--------------------------------|
C |0-------0-------0-------0-------|0-------0-------0-------0-------|
Tap to rate this tab
# A B C D E F G H I J K L M N O P Q R S T U V W X Y Z