Song name
# A B C D E F G H I J K L M N O P Q R S T U V W X Y Z

John Butler Trio - Valley tab

-----------------------------------------------------------------------------
			     Valley - John Butler Trio
-----------------------------------------------------------------------------
Tabbed by:Leo_Monkey
Email:

Tuning:DADGBe Drop D

intro all harmonics

e|---------------------------------------------------------12--------------|
B|-----7--------------------------------7------------7---------------------|
G|--------7---------------------------------7------------------------------|
D|-5-------------------5-----------5---------------------------------------|
A|-------------5---------------------------------5-------------------------|
E|-5---------------7---------------5---------------------------------------|

e|--------------------------------------------------------------------------|
B|------7-------------------------------------------------------------------|
G|---------7----------------------------------------------------------------|
D|--5-----------------------------------------------------------------------|
A|--------------------------------------------------------------------------|
E|--5-----------------------------------------------------------------------|

i havent figured out the rest but when i do ill post it
Tap to rate this tab
# A B C D E F G H I J K L M N O P Q R S T U V W X Y Z