Song name
# A B C D E F G H I J K L M N O P Q R S T U V W X Y Z

John Butler Trio - Pickapart tab

Here it is, Pickapart including the solo and little intro licks.
Tuning-CGCGCE, slide used in parts

intro- all with slide
E---------------------------------------------------------------|
C-3/5-(0)-3-3/53-0-3-0---10/12-(0)--/12-------0--/15-15-12------|
G---------3-3/53-0-3-0------------10/---------0--/15-15-12------|
C----(0)------------3-0--------(0)------1210-----/15-15-12------|
G---------------------------------------------------------------|
C------------------------0----------------------------------0---|

E---------------------------------------------------------------------------------|
C-3/5-(0)-3-3/53-0-3-0---3-3-3/10-10-10-10---10/12-(0)-10-10-10/1210--/15-12------|
G---------3-3/53-0-3-0---3-3-3/10-10-10-10------------(10-10-10/1210)-/15-12------|
C----(0)------------3-0---3-3-3/10-10-10-10--------(0)----------------------------|
G-------------------------3-3-3/10-10-10-10---------------------------------------|
C----------------------0--3-3-3/10-10-10-10------------------------------------0--|

E-------------------------------------------------------------------|
C-/15---12---10---12--10/12-0--10/--0--10/--0--10/--0--10/--0--10/--|
G-/15-0-12-0-10-0-12--10/12-0-10/12-0-10/12-0-10/12-0-10/12-0-10/12-|
C-----0----0----0---------------------------------------------------|
G-------------------------------------------------------------------|
C-------------------------------------------------------------------|

Verse Lick(no slide)
E-----------------|
C--0-----------0--|
G----2h3p2p0------|x3
C-----------3p0---|
G-----------------|
C-0---------------|

Fill 1
E------------------------|
C------------------------|
G------------------------|
C------------------------|
G------------------------|
C------------------------|

E-----------------------------------------------------------------------|
C--0-------------/12--0------------/15--0------------/12-12-12-12-12-12-|
G----2h3p2p0-----/12----2h3p2p0----/15----2h3p2p0----/------------------|
C------------3p0-/12-----------3p0-/15-----------3p0-/------------------|
G----------------/12---------------/15---------------/------------------|
C-0------------------0-----------------0-------------/------------------|
"So there aint no need..."

0:49- Just start moving your slide over the 12th fret

0:56
E-/15-15-15------------------------------------------|
C-/15-15-15------------------------------------------|
G-/15-15-15---(I think you strum that fret 13 times)-|
C-/15-15-15------------------------------------------|
G-/15-15-15------------------------------------------|
C-/15-15-15------------------------------------------|

Now you just play the Verse Lick until the chorus (no fills)
Chorus(It would yake to long to write put how mant times to strum,
so just do it in time with the beat)

E---------------------------------------------------------------|
C-0-2/32-0--3-3-3-3-3/10-10-10-10/-12-12-12---------------------|
G-0-2/32-0--3-3-3-3-3/10-10-10-10/-12-12-12---------------------|
C-0-2/32-0--3-3-3-3-3/10-10-10-10/-12-12-12---------------------|
G-0-2/32-0--3-3-3-3-3/10-10-10-10/-12-12-12---------------------|
C-0-2/32-0--3-3-3-3-3/10-10-10-10/-12-12-12---------------------|

C-0-2/32-0--3-3-3-3-3/10-10-10-10---|
G-0-2/32-0--3-3-3-3-3/10-10-10-10---|
C-0-2/32-0--3-3-3-3-3/10-10-10-10---|
G-0-2/32-0--3-3-3-3-3/10-10-10-10---|
C-0-2/32-0--3-3-3-3-3/10-10-10-10---|

Solo (With Slide)
E------------------------------------------------------------------------------|
C-----------10-----------------------------3----3-3/5-/5-5/65-3-0-3-3/5--10----|
G---------------10-10/12-10/12/15-1512----3--/5-------------------3-3/5--10----|
C---10-10/12----------------------------15-3--------------------0--3-3/5--10---|
G-12---------------------------------------3------------------------------10---|
C------------------------------------------3------------------------------10---|

No slide Bend Quarter tone
E------------------------------------|--------------------------------------|
C------------(0)-5/65-0-5-3-0-3/10--|--------0--5-5b-5-3h5p3p0-3-0----------|
G---------3/5------------------3/10--|------------------------------3p0-----|
C---3-3/5-------------------0--3/10--|---3h5-0-------------------------3-5--|
G-3/---------------------------------|3h5-----------------------------------|
C------------------------------------|--------------------------------------|

Now there are 2 guitar parts going here
Ones just John struming muted dringd to the beat,
and the other starts at the end of the solo-

E-0-------/3--0-----/10--0-----/10--0-------/15------------------------------------|
C-0-------/3--0-----/10--0-----/10--0-------/15------------------------------------|
G-0-------/3--0-----/10--0-----/10--0-------/15-(strum the 13th's abount 13 times)-|
C-0-------/3--0-----/10--0-----/10--0-------/15------------------------------------|
G-0-------/3--0-----/10--0-----/10--0-------/15------------------------------------|
C-0-------/3--0-----/10--0-----/10--0-------/15------------------------------------|

Now it just goes back to the Verse, and the to the chorus.
John does some fills at the end of each chorus lick

Fill 1
E-10-12-12--10-12-/15-----------------|
C-10-12-12--10-12-/15-----------------|
G-10-12-12--10-12-/15-----------------|
C-10-12-12--10-12-/15-----------------|
G-10-12-12--10-12-/15-----------------|
C-10-12-12--10-12-/15-----------------|

Fill 2
E-/12-/12-/12-/12-/12-|
C-/12-/12-/12-/12-/12-|
G-/12-/12-/12-/12-/12-|
C-/12-/12-/12-/12-/12-|
G-/12-/12-/12-/12-/12-|
C-/12-/12-/12-/12-/12-|

Then on the 3rd chorus lick instead of the
2/32 thing, it's

E-/15-----------------------|
C-/15-----------------------|
G-/15-----------------------|
C-/15-----------------------|
G-/15-----------------------|
C-/15-----------------------|

Now just before the outro,
strum the 10th fret a little longer-
Outro

E-------------------------------|
C-------------------------------|
G-3-3-3-3-5---------------------|
C----------3-3-3-3-5------------|
G--------------------3-3-3-3-5--|
C-------------------------------|

So there you go, have fun. Tabbed by Will Burgess
Tap to rate this tab
# A B C D E F G H I J K L M N O P Q R S T U V W X Y Z