Song name
# A B C D E F G H I J K L M N O P Q R S T U V W X Y Z

John Butler Trio - Seeing Angels tab

Help us improve GuitareTab! Take a short survey!
John Butler Trio - Seeing Angels

Tuning : B F# C# F# B F#
CAPO : 4th

Intro :

|------------------------------------------------------------------------|
|-----------------------------------0------------------------------------|
|-----4---2-----x--------5-x--9\7---7-x-------4---2----x--------5-x-5~---|
|-------------0-x--------0-x--0-------x--------------0-x--------0-x-0----|
|-0h2-----0-----x----------x----------x-0-0h2-----0----x----------x------|
|---------------x-0--0h4---x--5-------x----------------x-0--0h4---x-5~---|


Refrain :

-|-0-0-0-0----0-0-0-0----0-0-0-0----0-0-0-0----|
-|-0-0-0-0----7-7-7-7----9-9-9-9----7-7-7-7----|
-|-0-0-0-0----0-0-0-0----0-0-0-0----0-0-0-0----|
-|-0-0-0-0----0-0-0-0----0-0-0-0----0-0-0-0----|
-|-0-0-0-0----0-0-0-0----0-0-0-0----0-0-0-0----|
-|-0-0-0-0----7-7-7-7----9-9-9-9----7-7-7-7----|


Break :

-|------------------------------------|---------------------------|
-|------------------------------------|------------------------0--|
-|-7-7-7-7--9-9-9-9--7-7-7-7--9-9-9-9-|-7-7-7-7--12-12-12-12---4--|
-|-0-0-0-0--0-0-0-0--0-0-0-0--0-0-0-0-|-0-0-0-0--0--0--0--0----0--|
-|-0-0-0-0--0-0-0-0--0-0-0-0--0-0-0-0-|-0-0-0-0--0--0--0--0----2--|
-|-7-7-7-7--9-9-9-9--7-7-7-7--9-9-9-9-|-7-7-7-7--12-12-12-12---0--|


Outro :

-|-------0-----------------------------------|-7-0-----0------------------|
-|--------------------0------------0---------|-----9-7-----0--------------|
-|-----4------------4---4--4-----4---4---4---|-----------9---7------------|
-|---0------------0-------0----0-------0-----|-----------------9-7--------|
-|-2------------2------------2---------------|---------------------9-7----|
-|-------------------------------------------|----------------------------|
Related for Seeing Angels tab