Guitaretab - guitar tabs
Song name
# A B C D E F G H I J K L M N O P Q R S T U V W X Y Z

John Butler Trio - Good Excuse tab

Song: Good Excuse
Band/ARtist: John Butler Trio
Album: Grand National
Tabbed By: Blinkman5

Key:
/ - Slide Up
\ - Slide Down
~ - Let Ring
* - Palm Mute
b - Bend
p - Pull Off
h - Hammer On

Intro

e|----------------------------------|
B|---5---5---3---3---5---5---3---3--|
G|---6---6---4---4---6---6---4---4--|
D|-7---7---5---5---7---7---5---5----|
A|----------------------------------|
E|----------------------------------|
   *   *   *   *   *   *   *   *

e|----------------------------------|
B|---5---5---3---3/5-5---5---3---3--|
G|---6---6---4---4/6-6---6---4---4--|
D|-7---7---5---5-------7---5---5----|
A|----------------------------------|
E|----------------------------------|
   *   *   *   *       *   *   *

e|------------------|
B|---5---5---3---3--|
G|---6---6---4---4--|
D|-7---7---5---5----|
A|------------------|
E|------------------|
   *   *   *   *   

e|----------------------------------|
B|---5---5---3---3/5-5---5---3---3--|
G|---6---6---4---4/6-6---6---4---4--|
D|-7---7---5---5-------7---5---5----|
A|----------------------------------|
E|----------------------------------|
   *   *   *   *       *   *   *   

e|------------------|
B|---5---5---3---3--|
G|---6---6---4---4--|
D|-7---7---5---5----|
A|------------------|
E|------------------|
   *   *   *   *  

Verse

e|----------------------------------|
B|---5---5---3---3---5---5---3---3--|
G|---6---6---4---4---6---6---4---4--|
D|-7---7---5---5---7---7---5---5----| 8x
A|----------------------------------|
E|----------------------------------|

Pre-Chorus

e|----------------------------------|
B|---5---5---3---3---5---5---3---3--|
G|---6---6---4---4---6---6---4---4--|
D|-7---7---5---5---7---7---5---5----| 2x
A|----------------------------------|
E|----------------------------------|

Chorus

e|------------------------------------------------------------------|
B|------------------------------------------------------------------|
G|------------------------------------------------------------------|
D|---7---7---7---7---7---7---7---7---4---4---4---4---5---5---5---5--| 1x
A|---7---7---7---7---7---7---7---7---4---4---4---4---5---5---5---5--|
E|-5---5---5---5---5---5---5---5---2---2---2---2---3---3---3---3----|

Riff

e|----------------------------------|
B|---5---5---3---3---5---5---3---3--|
G|---6---6---4---4---6---6---4---4--|
D|-7---7---5---5---7---7---5---5----|
A|----------------------------------|
E|----------------------------------|

e|--------------------------------|
B|---5---5---3---3---5~----3---3--|
G|---6---6---4---4---6~----4---4--|
D|-7---7---5---5---7-----5---5----|
A|--------------------------------|
E|--------------------------------|


Verse

e|----------------------------------|
B|---5---5---3---3---5---5---3---3--|
G|---6---6---4---4---6---6---4---4--|
D|-7---7---5---5---7---7---5---5----| 3x
A|----------------------------------|
E|----------------------------------|

e|-----------------------------------|
B|---5---5---3---3---5---5-----------|
G|---6---6---4---4---6---6-----------|
D|-7---7---5---5---7---7---5-[PAUSE]-| 1x
A|-----------------------------------|
E|-----------------------------------|

e|----------------------------------|
B|---5---5---3---3---5---5---3---3--|
G|---6---6---4---4---6---6---4---4--|
D|-7---7---5---5---7---7---5---5----| 4x
A|----------------------------------|
E|----------------------------------|

Pre-Chorus

e|----------------------------------|
B|---5---5---3---3---5---5---3---3--|
G|---6---6---4---4---6---6---4---4--|
D|-7---7---5---5---7---7---5---5----| 2x
A|----------------------------------|
E|----------------------------------|

Chorus
[ Tab from: http://www.guitaretab.com/j/john-butler-trio/87494.html ]
e|------------------------------------------------------------------|
B|------------------------------------------------------------------|
G|------------------------------------------------------------------|
D|---7---7---7---7---7---7---7---7---4---4---4---4---5---5---5---5--| 2x
A|---7---7---7---7---7---7---7---7---4---4---4---4---5---5---5---5--|
E|-5---5---5---5---5---5---5---5---2---2---2---2---3---3---3---3----|

Keyboard Solo


Guitar Solo

e|---------------------------------------------------------------------------|
B|------------------------------------------------------------5-7-7-7-7/8p7--|
G|--------5h7--5h7-5h7-5h7-7/8\7-5------------------------5-7----------------|
D|----5h7---------------------------5h7-5h7-5h7-5h7-5h7~---------------------|
A|---------------------------------------------------------------------------|
E|---------------------------------------------------------------------------|
                                    * * * * * * * * * * [ Palm mute the strings lightly ]


e|---------------------------------------------------------------------------|
B|--5h7-5-7/8p7-5h7-5--------------------------------------------------------|
G|--------------------5b~-----------------------------------------------------|
D|---------------------------------------------------------------------------|
A|---------------------------------------------------------------------------|
E|---------------------------------------------------------------------------|
                      
                   

Chorus

e|------------------------------------------------------------------|
B|------------------------------------------------------------------|
G|------------------------------------------------------------------|
D|---7---7---7---7---7---7---7---7---4---4---4---4---5---5---5---5--| 2x
A|---7---7---7---7---7---7---7---7---4---4---4---4---5---5---5---5--|
E|-5---5---5---5---5---5---5---5---2---2---2---2---3---3---3---3----|

Outro

e|-----|
B|-----|
G|-----|
D|-7~--|
A|-7~--|
E|-5~--|



All around I see raining
Things donít seem to go my way
Got a dark cloud thatís hanging
And it seems to follow me

Oh wonít you just wake up
feel the humming
This cruel world is killing you
better start running
Catch up with your life, catch on up
Before the whole thing is through

Have you once? Have you twice?
Have you even considered
it be really good for you
To go out and go on
take another better look around

You are just another white boy
Thinking youíre so hardcore
Take step outside see whatís shaking in the real world

Go take a step outside see whatís shaking in the real world
Go take a step outside see whatís shaking in the real world

But you donít know
how my heart laments
I really got a good excuse
to complain
My parents got divorced
Canít heal the pain

And now there is only cheap regrets
I guess thatís just the way it be
Is it the world or how I see me

Boy now you are really, really bugging
Yes you are bugging me,
canít you just shut right up
Your cup is overflowing, overflowing
And you think it is indeed

You donít even know what side
you are fighting for
Boy wonít you turn your game boy off
Start pretending
itís you against the world
I am sick and I am tried of hearing
of hearing you always say

I really got a good excuse to complain
My parents got divorced
Canít heal the pain

Go take a step outside see whatís shaking in the real world
Go take a step outside see whatís shaking in the real world
Go take a step outside see whatís shaking in the real world
Go take a step outside see whatís shaking in the real world

[ Guitar Solo ]

Go take a step outside see whatís shaking in the real world
Go take a step outside see whatís shaking in the real world
Go take a step outside see whatís shaking in the real world
Go take a step outside see whatís shaking in the real world
Related for Good Excuse tab