Song name
# A B C D E F G H I J K L M N O P Q R S T U V W X Y Z

John Butler Trio - Life Aint What It Seems tab

Help us improve GuitareTab! Take a short survey!
Author/Artist: john butler trio
Title: life aint what it seems
Album: three


Tunning C-G-C-G-C-E
Capo on 5th fret
(all numbers respect to capo)

these are just some little riffs that are really basic versions
of what john plays,
left out the really fast ones......to Psycho!!!
you'll need the song to work out timing


------------------------------------------------------------------------------|
----------------9-------------4---2---0-------really fast bit-----------------|
--------5----------0--9-------2-----------------------------------------------|
-0----0---------------7-------------------------------------------------------|
----------------7-------------------------------------------------------------|
-0----------------------------------------------------------------------------|


------------------------------------------------------------------------------|
--------9----------------7--4-4--2h4p2p0--0-----------------------------------|
------------0--9---------5----------------------4/5---------------------------|
0---0----------7--------------------------------0-----------------------------|
--------7---------------------------------------------------------------------|
0-----------------------------------------------------------------------------|


------------------------------------------------------------------------------|
-9--------------------------7-------------------------------------------------|
----0--9--------------7/9-----------------------------------------------------|
-------7----------------------------------------------------------------------|
-7----------------------------------------------------------------------------|
------------------------------------------------------------------------------|


------------------------------------------------------------------------------|
-----------------------4----2-0-----------------------------------------------|
------------9---------------------2p0-----------------------------------------|
------------------------------------------------------------------------------|
-------7---------------2------------------------------------------------------|
--0---------------------------------------------------------------------------|


------------------------------------------------------------------------------|
------9-------------4---2-----------------------------------------------------|
---------0--9-------2----------5h7------7/9-----------------------------------|
------------7-----------------------------------------------------------------|
------7-----------------------------------------------------------------------|
-0----------------------------------------------------------------------------|


------------------------------------------------------------------------------|
------9-----------------------------------------------------------------------|
---------0--9--------0h2--2/4--2--2p0----0------------------------------------|
------------7-----------------------------------------------------------------|
------7-----------------------------------------------------------------------|
-0---------------------------------------0------------------------------------|


-------------------------------------------------------------------------------|
------9------------------------------------------------------------------------|
---------0---9-----------------------------------------------------------------|
-------------7-------9--7-7-75------5------------------------------------------|
------7------------------------------------------------------------------------|
-0-----------------------------------0-----------------------------------------|


-------------------------3----------------------------------------------------|
-------9-----------------0-----4-4-4------------------------------------------|
----------0---9---------------------------------------------------------------|
--------------7---------------------------------------------------------------|
-------7----------------------------------------------------------------------|
-0----------------------------------------------------------------------------|
Related for Life Aint What It Seems tab