Song name
# A B C D E F G H I J K L M N O P Q R S T U V W X Y Z

John Carpenter - Halloween Theme tab

This is originally played on the Piano but i think i got it really close on the guitar.

e------------------------------------------|
B----14-------14--------14----15-----------|
G-------14-14-----14-14----14--------------|      (Repeat 4 times)
D------------------------------------------|
A------------------------------------------|
E------------------------------------------|

e------------------------------------------|
B----12-------12--------12----13-----------|
G-------12-12-----12-12----12--------------|      (Repeat 4 times)
D------------------------------------------|
A------------------------------------------|
E------------------------------------------|

e------------------------------------------|
B----10-------10--------10----11-----------|
G-------10-10-----10-10----10--------------|      (Repeat 4 times)
D------------------------------------------|
A------------------------------------------|
E------------------------------------------|

e------------------------------------------|
B----12-------12--------12----13-----------|
G-------12-12-----12-12----12--------------|      (Repeat 4 times)
D------------------------------------------|
A------------------------------------------|
E------------------------------------------|

e------------------------------------------|
B----14-------14--------14----15-----------|
G-------14-14-----14-14----14--------------|      (Repeat 4 times)
D------------------------------------------|
A------------------------------------------|
E------------------------------------------|
Tap to rate this tab
# A B C D E F G H I J K L M N O P Q R S T U V W X Y Z