Song name
# A B C D E F G H I J K L M N O P Q R S T U V W X Y Z

John Carpenter - Original Halloween Theme tab

e|---10-----10-----10--11--------|
b|------8-8----8-8----8--8-------|
d|-------------------------------|
g|-------------------------------|x2
a|-------------------------------|
E|-------------------------------|
__________________________________

e|---9-----9-----9--10-----------|
b|-----7-7---7-7--7----7---------|
d|-------------------------------|
g|-------------------------------|x2
a|-------------------------------|
E|-------------------------------|
__________________________________       

e|---8-----8-----8--9------------|
b|-----6-6---6-6---6-------------|
d|-------------------------------|
g|-------------------------------|x2   
a|-------------------------------|
E|-------------------------------|   
__________________________________

e|---7-----7-----7--8------------|
b|-----5-5---5-5---5-------------|
d|-------------------------------|
g|-------------------------------|x2
a|-------------------------------|
E|-------------------------------|
Tap to rate this tab
# A B C D E F G H I J K L M N O P Q R S T U V W X Y Z