Song name
# A B C D E F G H I J K L M N O P Q R S T U V W X Y Z

John Carpenter - Escape From New York Theme tab

|---------------------------|
|-escape-from-new-york-theme|
|---------------------------|
|-------Tabbed-by:@55h0l3---|
|--------standard tuning----|
|-------------eadgbe--------|
|---------------------------|



e|----------3---------5---------3-5--3-2--3-2----------|
b>5-----3h5-3-----3h5-5-----3h5-3-3--3-3--3-3--5-3--3S-|->slide to
g>4--------------------------------------------5-4--3S-|->bottom 
d|-----------------------------------------------------|        
a|-----------------------------------------------------|  
E|-----------------------------------------------------|

e|----------3---------5---------3-5--3-2--3-2----------|
b>5-----3h5-3-----3h5-5-----3h5-3-3--3-3--3-3--5-3--3S-|->slide to the
g>4--------------------------------------------5-4--3S-|-> begining
d|-----------------------------------------------------|
a|-----------------------------------------------------|
E|-----------------------------------------------------|
Tap to rate this tab
 
# A B C D E F G H I J K L M N O P Q R S T U V W X Y Z