Song name
# A B C D E F G H I J K L M N O P Q R S T U V W X Y Z

John Carpenter - Assault On Precinct 13 Theme tab

This song is easy because this goes on for the whole song. I'm pretty sure this is correct.


E--------------------------------------------------------------------|
B--------------------------------------------------------------------|
G--------------------------------------------------------------------|
D--------------------------2-----------------------------------------|
A---0-0-0-3-0-------3-3-3----3---------------------------------------|
E-----------------------------------3-3-3-3-3------------------------|

E--------------------------------------------------------------------|
B--------------------------------------------------------------------|
G--------------------------------------------------------------------|
D--------------------------------------------------------------------|
A---0-0-0-3-0--------------------------------------------------------|
E--------------------------------------------------------------------|
Tap to rate this tab
# A B C D E F G H I J K L M N O P Q R S T U V W X Y Z