Song name
# A B C D E F G H I J K L M N O P Q R S T U V W X Y Z

John Carpenter - Theme From Snake Plissken tab

Here's the main theme From the Movie Escape from N.Y. by John Carpenter

If you want anything just write me : will.mystery@voila.fr
e-|-------------------------------------------------------------------|
B-|-------------------------------1------3------1-3-1-0---------------|
G-|------------------------2--0-2----0-2----0-2----------2--0-0-2-1--2|
D-|-------------------------------------------------------------------|
A-|-0-0-0-0--0--0-0-0-0----0-----------------------------------------0|
E-|-------------------------------------------------------------------|
Then following like something like that
e-|-------------------------------------------------------------------|
B-|-------1---0-------------------------------------------------------|
G-|-2------------0---2------------------------------------------------|
D-|----2--------------------------------------------------------------|
A-|------------------0-...---0-0-0-0---0---0-0-0-0--------------------|
E-|-------------------------------------------------------------------|

John Carpenter is The Best !!!!!
Tap to rate this tab
 
# A B C D E F G H I J K L M N O P Q R S T U V W X Y Z