Song name
# A B C D E F G H I J K L M N O P Q R S T U V W X Y Z

John Coltrane - Mr Pc tab

song: mr pc
artist: john coltrane
album:??

theres really one part to the song and it goes like this;

e---------------3-----3-3-3-------------------10--------3-3-3----|
b----3-3-4-4-6-6-6-4--4-3-4------8-8-9-9-11-11--11-9----4-3-4----|
g-5-5---------------5-5-3-5-10-10--------------------10-5-3-5----|
d---------------------5-3-5-----------------------------5-3-5----|
a---------------------3-3-3-----------------------------3-3-3----|
e---------------------3-3-3-----------------------------3-3-3----|

e--------------------3-3-3--------|
b-4-4-7-6~-7-6-4-6-4-4-3-4--------|
g--5-----------------5-3-5--------|
d--------------------5-3-5--------|
a--------------------3-3-3--------|
e--------------------3-3-3--------|

and thats it.enjoy!!!!!
Tap to rate this tab
# A B C D E F G H I J K L M N O P Q R S T U V W X Y Z