Song name
# A B C D E F G H I J K L M N O P Q R S T U V W X Y Z

John Cougar Mellencamp - Aint Even Done With The Night tab

Artist: John Cougar
Song: Aint Even Done With The Night
(Capo 2nd fret)


 Intro
  E E E Q  E Q  E E E Q  E Q  E E E Q  E Q  E E E Q  E Q
|----------------------------------------------------------|
|-------0-------------0-------------0-------------0--------|
|-----2----2--------2----2--------2----2--------2----2-----|
|---2--------2----2--------2----0--------0----0--------0---|
|-0-------------0-------------0-------------0--------------|
|----------------------------------------------------------|


  E E E Q  E Q  E E E Q  E Q  E E E Q  E Q  E E E Q  E Q
|----------------------------------------------------------|
|-------0-------------0-------------0-------------0--------|
|-----2----2--------2----2--------2----2--------2----2-----|
|---2--------2----2--------2----0--------0----0--------0---|
|-0-------------0-------------0-------------0--------------|
|----------------------------------------------------------|


 Verse
  E E E Q  E Q  E E E Q  E Q  E E E Q  E Q  E E E Q  E Q
|----------------------------------------------------------|
|-------0-------------0-------------0-------------0--------|
|-----2----2--------2----2--------2----2--------2----2-----|
|---2--------2----2--------2----0--------0----0--------0---|
|-0-------------0-------------0-------------0--------------|
|----------------------------------------------------------|


  E E E Q  E Q  E E E Q  E Q  E E E Q  E Q  E E E Q  E Q
|----------------------------------------------------------|
|-------0-------------0-------------0-------------0--------|
|-----2----2--------2----2--------2----2--------2----2-----|
|---2--------2----2--------2----0--------0----0--------0---|
|-0-------------0-------------0-------------0--------------|
|----------------------------------------------------------|


 Pre Chorus
  Q  E Q  E Q  Q  E Q  E Q  Q  E Q  E E Q  E E Q  E Q
|-2--2-2--2-2--2--2-2--2-2--0--0-0--0-0-0--0-0-0--0-0----|
|-2--2-2--2-2--3--3-3--3-3--0--0-0--0-0-0--0-0-0--0-0----|
|-2--2-2--2-2--2--2-2--2-2--1--1-1--1-1-1--1-1-1--1-1----|
|-4--4-4--4-4--0--0-0--0-0--2--2-2--2-2-2--2-2-2--2-2----|
|-4--4-4--4-4---------------2--2-2--2-2-2--2-2-2--2-2----|
|---------------------------0--0-0--0-0-0--0-0-0--0-0----|


  Q  E Q  E Q  Q  E Q  E Q  Q  E Q  E E Q  E E Q  E Q
|-2--2-2--2-2--2--2-2--2-2--0--0-0--0-0-0--0-0-0--0-0----|
|-2--2-2--2-2--3--3-3--3-3--0--0-0--0-0-0--0-0-0--0-0----|
|-2--2-2--2-2--2--2-2--2-2--1--1-1--1-1-1--1-1-1--1-1----|
|-4--4-4--4-4--0--0-0--0-0--2--2-2--2-2-2--2-2-2--2-2----|
|-4--4-4--4-4---------------2--2-2--2-2-2--2-2-2--2-2----|
|---------------------------0--0-0--0-0-0--0-0-0--0-0----|


 Chorus
  E E E Q  E E E E E E Q  E E E Q  E Q  E Q  Q  E Q  E Q
|-0---0-0--0-0---2---2-2--2-2---2--2-2--2-2--0--0-0--0-0----|
|-2---2-2--2-2---2---2-2--2-2---3--3-3--3-3--0--0-0--0-0----|
|-2---2-2--2-2---2---2-2--2-2---2--2-2--2-2--1--1-1--1-1----|
|-2---2-2--2-2---4---4-4--4-4---0--0-0--0-0--2--2-2--2-2----|
|-0---0-0--0-0---4---4-4--4-4----------------2--2-2--2-2----|
|--------------------------------------------0--0-0--0-0----|


  E E E Q  E E E E E E Q  E E E Q  E Q  E Q  Q  E Q  E Q
|-0---0-0--0-0---2---2-2--2-2---2--2-2--2-2--0--0-0--0-0----|
|-2---2-2--2-2---2---2-2--2-2---3--3-3--3-3--0--0-0--0-0----|
|-2---2-2--2-2---2---2-2--2-2---2--2-2--2-2--1--1-1--1-1----|
|-2---2-2--2-2---4---4-4--4-4---0--0-0--0-0--2--2-2--2-2----|
|-0---0-0--0-0---4---4-4--4-4----------------2--2-2--2-2----|
|--------------------------------------------0--0-0--0-0----|


  E E E Q  E E E E E E Q  E E E Q  E Q  E Q  Q  E Q  E Q
|-0---0-0--0-0---2---2-2--2-2---2--2-2--2-2--0--0-0--0-0----|
|-2---2-2--2-2---2---2-2--2-2---3--3-3--3-3--0--0-0--0-0----|
|-2---2-2--2-2---2---2-2--2-2---2--2-2--2-2--1--1-1--1-1----|
|-2---2-2--2-2---4---4-4--4-4---0--0-0--0-0--2--2-2--2-2----|
|-0---0-0--0-0---4---4-4--4-4----------------2--2-2--2-2----|
|--------------------------------------------0--0-0--0-0----|


 Intro Riff
  E E E Q  E Q  E E E Q  E Q  E E E Q  E Q  E E E Q  E Q
|----------------------------------------------------------|
|-------0-------------0-------------0-------------0--------|
|-----2----2--------2----2--------2----2--------2----2-----|
|---2--------2----2--------2----0--------0----0--------0---|
|-0-------------0-------------0-------------0--------------|
|----------------------------------------------------------|


  E E E Q  E Q  E E E Q  E Q  E E E Q  E Q  E E E Q  E Q
|----------------------------------------------------------|
|-------0-------------0-------------0-------------0--------|
|-----2----2--------2----2--------2----2--------2----2-----|
|---2--------2----2--------2----0--------0----0--------0---|
|-0-------------0-------------0-------------0--------------|
|----------------------------------------------------------|


 Verse
  E E E Q  E Q  E E E Q  E Q  E E E Q  E Q  E E E Q  E Q
|----------------------------------------------------------|
|-------0-------------0-------------0-------------0--------|
|-----2----2--------2----2--------2----2--------2----2-----|
|---2--------2----2--------2----0--------0----0--------0---|
|-0-------------0-------------0-------------0--------------|
|----------------------------------------------------------|


  E E E Q  E Q  E E E Q  E Q  E E E Q  E Q  E E E Q  E Q
|----------------------------------------------------------|
|-------0-------------0-------------0-------------0--------|
|-----2----2--------2----2--------2----2--------2----2-----|
|---2--------2----2--------2----0--------0----0--------0---|
|-0-------------0-------------0-------------0--------------|
|----------------------------------------------------------|


 Pre Chorus
  Q  E Q  E Q  Q  E Q  E Q  Q  E Q  E E Q  E E Q  E Q
|-2--2-2--2-2--2--2-2--2-2--0--0-0--0-0-0--0-0-0--0-0----|
|-2--2-2--2-2--3--3-3--3-3--0--0-0--0-0-0--0-0-0--0-0----|
|-2--2-2--2-2--2--2-2--2-2--1--1-1--1-1-1--1-1-1--1-1----|
|-4--4-4--4-4--0--0-0--0-0--2--2-2--2-2-2--2-2-2--2-2----|
|-4--4-4--4-4---------------2--2-2--2-2-2--2-2-2--2-2----|
|---------------------------0--0-0--0-0-0--0-0-0--0-0----|


  Q  E Q  E Q  Q  E Q  E Q  Q  E Q  E E Q  E E Q  E Q
|-2--2-2--2-2--2--2-2--2-2--0--0-0--0-0-0--0-0-0--0-0----|
|-2--2-2--2-2--3--3-3--3-3--0--0-0--0-0-0--0-0-0--0-0----|
|-2--2-2--2-2--2--2-2--2-2--1--1-1--1-1-1--1-1-1--1-1----|
|-4--4-4--4-4--0--0-0--0-0--2--2-2--2-2-2--2-2-2--2-2----|
|-4--4-4--4-4---------------2--2-2--2-2-2--2-2-2--2-2----|
|---------------------------0--0-0--0-0-0--0-0-0--0-0----|


 Chorus
  E E E Q  E E E E E E Q  E E E Q  E Q  E Q  Q  E Q  E Q
|-0---0-0--0-0---2---2-2--2-2---2--2-2--2-2--0--0-0--0-0----|
|-2---2-2--2-2---2---2-2--2-2---3--3-3--3-3--0--0-0--0-0----|
|-2---2-2--2-2---2---2-2--2-2---2--2-2--2-2--1--1-1--1-1----|
|-2---2-2--2-2---4---4-4--4-4---0--0-0--0-0--2--2-2--2-2----|
|-0---0-0--0-0---4---4-4--4-4----------------2--2-2--2-2----|
|--------------------------------------------0--0-0--0-0----|


  E E E Q  E E E E E E Q  E E E Q  E Q  E Q  Q  E Q  E Q
|-0---0-0--0-0---2---2-2--2-2---2--2-2--2-2--0--0-0--0-0----|
|-2---2-2--2-2---2---2-2--2-2---3--3-3--3-3--0--0-0--0-0----|
|-2---2-2--2-2---2---2-2--2-2---2--2-2--2-2--1--1-1--1-1----|
|-2---2-2--2-2---4---4-4--4-4---0--0-0--0-0--2--2-2--2-2----|
|-0---0-0--0-0---4---4-4--4-4----------------2--2-2--2-2----|
|--------------------------------------------0--0-0--0-0----|


  E E E Q  E E E E E E Q  E E E Q  E Q  E Q  Q  E Q  E Q
|-0---0-0--0-0---2---2-2--2-2---2--2-2--2-2--0--0-0--0-0----|
|-2---2-2--2-2---2---2-2--2-2---3--3-3--3-3--0--0-0--0-0----|
|-2---2-2--2-2---2---2-2--2-2---2--2-2--2-2--1--1-1--1-1----|
|-2---2-2--2-2---4---4-4--4-4---0--0-0--0-0--2--2-2--2-2----|
|-0---0-0--0-0---4---4-4--4-4----------------2--2-2--2-2----|
|--------------------------------------------0--0-0--0-0----|


 Bridge
  Q  E Q  E Q  Q  E Q  E Q  Q  E Q  E E Q  E E Q  E Q
|-2--2-2--2-2--2--2-2--2-2--0--0-0--0-0-0--0-0-0--0-0----|
|-2--2-2--2-2--3--3-3--3-3--0--0-0--0-0-0--0-0-0--0-0----|
|-2--2-2--2-2--2--2-2--2-2--1--1-1--1-1-1--1-1-1--1-1----|
|-4--4-4--4-4--0--0-0--0-0--2--2-2--2-2-2--2-2-2--2-2----|
|-4--4-4--4-4---------------2--2-2--2-2-2--2-2-2--2-2----|
|---------------------------0--0-0--0-0-0--0-0-0--0-0----|


                                         |--3--|  |--3--|
  Q  E Q  E Q  Q  E Q  E Q  Q  E Q  E Q  Q  Q  Q  Q  Q  Q
|-2--2-2--2-2--2--2-2--2-2--0--0-0--0-0--0--0--0--0--0--0-|
|-2--2-2--2-2--3--3-3--3-3--0--0-0--0-0--0--0--0--0--0--0-|
|-2--2-2--2-2--2--2-2--2-2--1--1-1--1-1--1--1--1--1--1--1-|
|-4--4-4--4-4--0--0-0--0-0--2--2-2--2-2--2--2--2--2--2--2-|
|-4--4-4--4-4---------------2--2-2--2-2--2--2--2--2--2--2-|
|---------------------------0--0-0--0-0--0--0--0--0--0--0-|


 Chorus
  E E E Q  E E E E E E Q  E E E Q  E Q  E Q  Q  E Q  E Q
|-0---0-0--0-0---2---2-2--2-2---2--2-2--2-2--0--0-0--0-0----|
|-2---2-2--2-2---2---2-2--2-2---3--3-3--3-3--0--0-0--0-0----|
|-2---2-2--2-2---2---2-2--2-2---2--2-2--2-2--1--1-1--1-1----|
|-2---2-2--2-2---4---4-4--4-4---0--0-0--0-0--2--2-2--2-2----|
|-0---0-0--0-0---4---4-4--4-4----------------2--2-2--2-2----|
|--------------------------------------------0--0-0--0-0----|


  E E E Q  E E E E E E Q  E E E Q  E Q  E Q  Q  E Q  E Q
|-0---0-0--0-0---2---2-2--2-2---2--2-2--2-2--0--0-0--0-0----|
|-2---2-2--2-2---2---2-2--2-2---3--3-3--3-3--0--0-0--0-0----|
|-2---2-2--2-2---2---2-2--2-2---2--2-2--2-2--1--1-1--1-1----|
|-2---2-2--2-2---4---4-4--4-4---0--0-0--0-0--2--2-2--2-2----|
|-0---0-0--0-0---4---4-4--4-4----------------2--2-2--2-2----|
|--------------------------------------------0--0-0--0-0----|


  E E E Q  E E E E E E Q  E E E Q  E Q  E Q  Q  E Q  E Q
|-0---0-0--0-0---2---2-2--2-2---2--2-2--2-2--0--0-0--0-0----|
|-2---2-2--2-2---2---2-2--2-2---3--3-3--3-3--0--0-0--0-0----|
|-2---2-2--2-2---2---2-2--2-2---2--2-2--2-2--1--1-1--1-1----|
|-2---2-2--2-2---4---4-4--4-4---0--0-0--0-0--2--2-2--2-2----|
|-0---0-0--0-0---4---4-4--4-4----------------2--2-2--2-2----|
|--------------------------------------------0--0-0--0-0----|


 Outro
  E E E Q  E Q  E E E Q  E Q  E E E Q  E Q  E E E Q  E Q
|----------------------------------------------------------|
|-------0-------------0-------------0-------------0--------|
|-----2----2--------2----2--------2----2--------2----2-----|
|---2--------2----2--------2----0--------0----0--------0---|
|-0-------------0-------------0-------------0--------------|
|----------------------------------------------------------|


  E E E Q  E Q  E E E Q  E Q  E E E Q  E Q  E E E Q  E Q
|----------------------------------------------------------|
|-------0-------------0-------------0-------------0--------|
|-----2----2--------2----2--------2----2--------2----2-----|
|---2--------2----2--------2----0--------0----0--------0---|
|-0-------------0-------------0-------------0--------------|
|----------------------------------------------------------|


  E E E Q  E Q  E E E Q  E Q  E E E Q  E Q  E E E Q  E Q
|----------------------------------------------------------|
|-------0-------------0-------------0-------------0--------|
|-----2----2--------2----2--------2----2--------2----2-----|
|---2--------2----2--------2----0--------0----0--------0---|
|-0-------------0-------------0-------------0--------------|
|----------------------------------------------------------|


  E E E Q  E Q  E E E Q  E Q  E E E Q  E Q  E E E Q  E Q
|----------------------------------------------------------|
|-------0-------------0-------------0-------------0--------|
|-----2----2--------2----2--------2----2--------2----2-----|
|---2--------2----2--------2----0--------0----0--------0---|
|-0-------------0-------------0-------------0--------------|
|----------------------------------------------------------|


  E E E Q  E Q  E E E Q  E Q  E E E Q  E Q  E E E Q  E Q
|----------------------------------------------------------|
|-------0-------------0-------------0-------------0--------|
|-----2----2--------2----2--------2----2--------2----2-----|
|---2--------2----2--------2----0--------0----0--------0---|
|-0-------------0-------------0-------------0--------------|
|----------------------------------------------------------|


  E E E Q  E H    W
|-----------------0----|
|-------0---------2----|
|-----2----2------2----|
|---2--------2----2----|
|-0---------------0----|
|----------------------|


www.guitarstars.biz
Tap to rate this tab
 
# A B C D E F G H I J K L M N O P Q R S T U V W X Y Z