Song name
# A B C D E F G H I J K L M N O P Q R S T U V W X Y Z

John Cougar Mellencamp - Jack And Diane tab

-------------------------------------------------------------------------------
                             Jack and Diane  John Cougar Mellencamp
-------------------------------------------------------------------------------
Tabbed by:Cullen Walker
E-mail: cullen_walker@yahoo.com

Tuning:Normal

These sound good to me. To get the rhythm listen to the song.
Intro 3x

e|---5-----4----5----4----2--------------------------------------------------|
B|---5-----5----5----5----3--------------------------------------------------|
G|---6-----4----6----4----2--------------------------------------------------|
D|---------------------------------0-----0-----------------------------------|
A|---------------------------------------------------------------------------|
E|---------------------------------------------------------------------------|

Verse -A little diddy about Jack and Diane- & -Jackie going to be a football star- (i.e. 
1&3 lines)
It is the same with the chorus 1st and 3rd lines

e|--5-----4-----2-----4------------------------------------------------------|
B|--5-----5-----3-----5------------------------------------------------------|
G|--6-----4-----2-----4------------------------------------------------------|
D|---------------------------------------------------------------------------|
A|---------------------------------------------------------------------------|
E|---------------------------------------------------------------------------|

-Two American kids growing up in the heartland- and -Diane debutante backseat of Jackies 
Car- (i.e. 2 & 4 lines)
It is the same with the chorus 2nd and 4th lines


e|--5----4-----2-----4-------5-----------------------------------------------|
B|--5----5-----3-----5-------5-----------------------------------------------|
G|--6----4-----2-----4-------6-----------------------------------------------|
D|---------------------------------------------------------------------------|
A|---------------------------------------------------------------------------|
E|---------------------------------------------------------------------------|

Bridge

e|---5h7h5----4---2--2----4h5h4-------5h7h5----4-----2----4----5-------------|
B|---5--------5---3--3----5-----------5--------5-----3----5----5-------------|
G|---6--------4---2--2----4-----------6--------4-----2----4----6-------------|
D|---------------------------------------------------------------------------|
A|---------------------------------------------------------------------------|
E|---------------------------------------------------------------------------|
Tap to rate this tab
# A B C D E F G H I J K L M N O P Q R S T U V W X Y Z