Song name
# A B C D E F G H I J K L M N O P Q R S T U V W X Y Z

John Cougar Mellencamp - Jack And Diane tab

-------------------------------------------------------------------------------
                             Jack and Diane  John Cougar Mellencamp
-------------------------------------------------------------------------------
Tabbed by:Lokki - The Smokin Gum
www.facebook.com/thesmokingum
Tuning:Normal

Hey all, Thought I would submit our tab for you of this great song. It may not
be 100% to the original record, but this is how we play it and it is a hit!
Hope you like.

2 Guitars


Intro 3x
Gtr 1
e|-0----0--0-0-0---------------|
B|-5----5--5-5-3---------------|
G|-6----4--6-4-2---------------|
D|-7----6--7-6-4---0-0----0-0--| (x3)
A|-----------------------------|
E|-----------------------------|

Gtr2
e|-0----0--0-0-2---------------|
B|-2----0--2-0-3---------------|
G|-2----1--2-1-2---------------|
D|-2----2--2-2-0---------------| (x3)
A|-0----2--0-2-----------------|
E|------0----0-----------------|



Verse x2
Gtr1
e|-5h7p5--4--3-3--4h5p4---5h7p5--4--2-4-5-|
B|-5-5-5--5--2-2--5-5-5---5-5-5--5--3-5-5-|
G|-6-6-6--4--3-3--4-4-4---6-6-6--4--2-4-6-|
D|----------------------------------------|  x2
A|----------------------------------------|
E|----------------------------------------|

Gtr 2 (softly)
e|-0------0--2-2--0-------0------0--2-0-0--|
B|-2------0--3-3--0-------2------0--3-0-2--|
G|-2------1--2-2--1-------2------1--2-1-2--|
D|-2------2--0-0--2-------2------2--0-2-2--| x2
A|-0------2-------2-------0------2----2-0--|
E|--------0-------0--------------0----0----|


Musical interlude x1
Gtr 1
e|-0-0-0---0--0-0---0-0-0---0-0-0---0--0-0-0-|
B|-2h3p2-/-5--3-3-/-5-5-5---2h3p2-/-5--3-3-2-|
G|-2-2-2-/-4--2-2-/-4h6h4---2-2-2-/-4--2-2-2-|
D|-2h4p2-/-6--4-4-/-6-6-6---2h4p2-/-6--4-4-2-|
A|-0---0--------------------0---0----------0-|
E|-------------------------------------------|

Gtr 2 (softly)
e|-0------0--2-2--0-------0------0--2-0-0--|
B|-2------0--3-3--0-------2------0--3-0-2--|
G|-2------1--2-2--1-------2------1--2-1-2--|
D|-2------2--0-0--2-------2------2--0-2-2--|
A|-0------2-------2-------0------2----2-0--|
E|--------0-------0--------------0----0----|

Verse x2

Chorus x1
Gtr 1
e|-0--0--0-0--0--0--0-0--0--0--0-0--0--0--0-0-0-|
B|-5--5--3-5--5--5--3-5--5--5--3-5--5--5--3-5-5-|
G|-6--4--2-4--6--4--2-4--6--4--2-4--6--4--2-4-6-|
D|-7--6--4-6--7--6--4-6--7--6--4-6--7--6--4-6-7-| 
A|----------------------------------------------|
E|----------------------------------------------|

Gtr2 (softly still)
e|-0--0--3-0--0--0--3-0--0--0--3-0--0--0--3-0-0-|
B|-2--0--2-0--2--0--2-0--2--0--2-0--2--0--2-0-2-|
G|-2--1--3-1--2--1--3-1--2--1--3-1--2--1--3-1-2-|
D|-2--2--0-2--2--2--0-2--2--2--0-2--2--2--0-2-2-| 
A|-0--2----2--0--2----2--0--2----2--0--2----2-0-|
E|----0----0-----0----0-----0----0-----0----0---|

Intro x 2

Verse x2

Chorus x1

Percussive Bridge (no guitar)

Musical Interlude x 1

Verse x 2 and a half done softly

Intro x repeat till end
Tap to rate this tab
# A B C D E F G H I J K L M N O P Q R S T U V W X Y Z