Song name
# A B C D E F G H I J K L M N O P Q R S T U V W X Y Z

John Cougar Mellencamp - Jack And Diane tab

 Artist: John Cougar Mellencamp
 Song: Jack and Diane
 Tuning: Standard
 Tabbed by: Matthew Gray
 Email: pink_zeppelin_matthamue@yahoo.com

 This is my first tab and I think this is pretty accurate.
 I've looked everywhere for a good tab for this song, But they
 where all pretty mixed up so this is the best i can do to
 translate it for all you looking for a decent tab of it.You'll
 need an electric and an acustic for both parts. If you have any
 questions just email me. Good Luck


 Intro: Distorted Electric (Guitar 1) (Play 3 times)
 e:-------------------------------------------------------------|
 B:-10----9---10-9-7--------------------------------------------|
 G:--9----9----9-9-7--------------------------------------------|
 D:-11----9---11-9-7-------00--------00-------------------------|
 A:--0----0----0-0-0---0h2-------0h2----------------------------|
 E:-------------------------------------------------------------|

 Riff 1: Clean Electric (Guitar 1)
 e:-------------------------------------------------------------|
 B: 2-3-2--5-55--33-5-55---2-3-2--5-55--3-5-2-22----------------|
 G:-2-2-2--4-44--22-4-44---2-2-2--4-44--2-4-2-22----------------|
 D:-2-4-2--6-66--44-6-66---2-4-2--6-66--4-6-2-22----------------|
 A:-------------------------------------------------------------|
 E:-------------------------------------------------------------|

 e:-------------------------------------------------------------|
 B:-2-3-2--5-55--33-5-55---2-3-2--5-55--3-5-2-22----------------|
 G:-2-2-2--4-44--22-4-44---2-2-2--4-44--2-4-2-22----------------|
 D:-2-4-2--6-66--44-6-66---2-4-2--6-66--4-6-2-22----------------|
 A:-------------------------------------------------------------|
 E:-------------------------------------------------------------|

 Riff 2: Acustic (guitar 2)
 e:-------------------------------------------------------------|
 B:-2-3-2-3/5-55--33-5-55--2-3-2-3/5-55--33-2-------------------|
 G:-2-2-2-2/4-44--22-4-44--2-2-2-2/4-44--22-2-------------------|
 D:-2-4-2-4/6-66--44-6-66--2-4-2-4/6-66--44-2-------------------|
 A:-------------------------------------------------------------|
 E:-------------------------------------------------------------|

 Then back to riff 1
 e:-------------------------------------------------------------|
 B:-2-3-2--5-55--33-5-55---2-3-2--5-55--3-5-2-22----------------|
 G:-2-2-2--4-44--22-4-44---2-2-2--4-44--2-4-2-22----------------|
 D:-2-4-2--6-66--44-6-66---2-4-2--6-66--4-6-2-22----------------|
 A:-------------------------------------------------------------|
 E:-------------------------------------------------------------|

 e:-------------------------------------------------------------|
 B:-2-3-2--5-55--33-5-55---2-3-2--5-55--3-5-2-22----------------|
 G:-2-2-2--4-44--22-4-44---2-2-2--4-44--2-4-2-22----------------|
 D:-2-4-2--6-66--44-6-66---2-4-2--6-66--4-6-2-22----------------|
 A:-------------------------------------------------------------|
 E:-------------------------------------------------------------|

 Then theres a small change here
 e:-------------------------------------------------------------|
 B:-2-3-2--5-55--33-5-55---2-3-2--5-55--33-5-55-----------------|
 G:-2-2-2--4-44--22-4-44---2-2-2--4-44--22-4-44-----------------|
 D:-2-4-2--6-66--44-6-66---2-4-2--6-66--44-6-66-----------------|
 A:-------------------------------------------------------------|
 E:-------------------------------------------------------------|

 e:-------------------------------------------------------------|
 B:-2-3-2--5-55--33-5-55---2-3-2--5-55--3-5-2-------------------|
 G:-2-2-2--4-44--22-4-44---2-2-2--4-44--2-4-2-------------------|
 D:-2-4-2--6-66--44-6-66---2-4-2--6-66--4-6-2-------------------|
 A:-------------------------------------------------------------|
 E:-------------------------------------------------------------|

 Then this is played again (2 times)
 e:-------------------------------------------------------------|
 B:-10----9---10-9-7--------------------------------------------|
 G:--9----9----9-9-7--------------------------------------------|
 D:-11----9---11-9-7-------00--------00-------------------------|
 A:--0----0----0-0-0---0h2-------0h2----------------------------|
 E:-------------------------------------------------------------|

 Then back to riff 1
 e:-------------------------------------------------------------|
 B:-2-3-2--5-55--33-5-55---2-3-2--5-55--3-5-2-22----------------|
 G:-2-2-2--4-44--22-4-44---2-2-2--4-44--2-4-2-22----------------|
 D:-2-4-2--6-66--44-6-66---2-4-2--6-66--4-6-2-22----------------|
 A:-------------------------------------------------------------|
 E:-------------------------------------------------------------|

 e:-------------------------------------------------------------|
 B:-2-3-2--5-55--33-5-55---2-3-2--5-55--3-5-2-22----------------|
 G:-2-2-2--4-44--22-4-44---2-2-2--4-44--2-4-2-22----------------|
 D:-2-4-2--6-66--44-6-66---2-4-2--6-66--4-6-2-22----------------|
 A:-------------------------------------------------------------|
 E:-------------------------------------------------------------|

 Then theres rhe small change here
 e:-------------------------------------------------------------|
 B:-2-3-2--5-55--33-5-55---2-3-2--5-55--33-5-55-----------------|
 G:-2-2-2--4-44--22-4-44---2-2-2--4-44--22-4-44-----------------|
 D:-2-4-2--6-66--44-6-66---2-4-2--6-66--44-6-66-----------------|
 A:-------------------------------------------------------------|
 E:-------------------------------------------------------------|

 e:-------------------------------------------------------------|
 B:-2-3-2--5-55--33-5-55---2-3-2--5-55--3-5-2-------------------|
 G:-2-2-2--4-44--22-4-44---2-2-2--4-44--2-4-2-------------------|
 D:-2-4-2--6-66--44-6-66---2-4-2--6-66--4-6-2-------------------|
 A:-------------------------------------------------------------|
 E:-------------------------------------------------------------|

 Then theres the drum thing.

 Then play riff 2 once. (acustic)
 e:-------------------------------------------------------------|
 B:-2-3-2-3/5-55--33-5-55--2-3-2-3/5-55--33-2-------------------|
 G:-2-2-2-2/4-44--22-4-44--2-2-2-2/4-44--22-2-------------------|
 D:-2-4-2-4/6-66--44-6-66--2-4-2-4/6-66--44-2-------------------|
 A:-------------------------------------------------------------|
 E:-------------------------------------------------------------|

 Then theres the small change here
 e:-------------------------------------------------------------|
 B:-2-3-2--5-55--33-5-55---2-3-2--5-55--33-5-55-----------------|
 G:-2-2-2--4-44--22-4-44---2-2-2--4-44--22-4-44-----------------|
 D:-2-4-2--6-66--44-6-66---2-4-2--6-66--44-6-66-----------------|
 A:-------------------------------------------------------------|
 E:-------------------------------------------------------------|


 e:-------------------------------------------------------------|
 B:-2-3-2--5-55--33-5-55---2-3-2--5-55--3-5-2-22----------------|
 G:-2-2-2--4-44--22-4-44---2-2-2--4-44--2-4-2-22----------------|
 D:-2-4-2--6-66--44-6-66---2-4-2--6-66--4-6-2-22----------------|
 A:-------------------------------------------------------------|
 E:-------------------------------------------------------------|

 Riff 3: (acustic) play lightly
 e:-------------------------------------------------------------|
 B:-5---3---3---3---5---5---5---3---3---3--2--------------------|
 G:-4---2---2---2---4---4---4---2---2---2--2--------------------|
 D:-6-6-4-4---4-4-4-6-6---6-6-6-4-4-4-4-4--2--------------------|
 A:-------------------------------------------------------------|
 E:-------------------------------------------------------------|

 Outro: Distorted Electric (4 times) Fade
 e:-------------------------------------------------------------|
 B:-10--9--9--10---9-10-9-7-------------------------------------|
 G:--9--9--9---9---9--9-9-7-------------------------------------|
 D:-11--9--9--11---9-11-9-7--------00---------00----------------|
 A:--0--0--0---0---0--0-0-0---0h2--------0h2--------------------|
 E:-------------------------------------------------------------|

 And thats all there is to it.

 I'd like to thank Stevo and Casey for always getting
 me to try harder.. The better you guys got, the more
 I kept at it.Especially to stevo who helped me learn
 alot when I first started. Thanks guys!

 THE END!!!!!!
Tap to rate this tab
 
# A B C D E F G H I J K L M N O P Q R S T U V W X Y Z