Song name
# A B C D E F G H I J K L M N O P Q R S T U V W X Y Z

John Cougar Mellencamp - Key West Intermezzo tab

Intro: (x4)
Gtr 1.
|---------7-------------10----7--------------------------------|
|-------------8---10--------------8-----------8----------------|
|---------------------------------------7/9--------9p7---------|
|---------------------------------------7/9--------9p7---------|
|--------------------------------------------------------------|
|--------------------------------------------------------------|

Gtr 2.
|--3------2--2---------0-----3--------2--2-------0-------------|
|--3------3--3---------1-----3--------3--3-------1-------------|
|--0------2--2---------0-----0--------2--2-------0-------------|
|--0------0--0---------2-----0--------0--0-------2-------------|
|--2-------------------3-----2-------------------3-------------|
|--3-------------------------3---------------------------------|
   G      D  D         C     G        D  D       C

Verse 1:
|--3------2--2------0----------|
|--3------3--3------0----------|
|--0------2--2-----------------| (x8)
|--0------0--0-----------------|
|--2---------------------------|
|--3---------------------------|
   G      D  D      C


|--0~----0~--------0~----0~----|
|--1~----1~--------1~----1~----|
|--2~--------------2~----------|
|--2~--------------2~----------|
|--0~--------------0~----------|
|------------------------------|
   Am              Am


|--3------2--2------0----------|
|--3------3--3------0----------|
|--0------2--2-----------------| (x2)
|--0------0--0-----------------|
|--2---------------------------|
|--3---------------------------|
   G      D  D      C


|--0~----0~--------0~----3~----------|
|--1~-------1~-----1~--------1~------|
|--2~--------------2~----------------|
|--2~--------------2~----------------|
|--0~--------------0~----------------|
|------------------------------------|
   Am              Am


Gtr 1.
|--3------2--2------0----------|
|--3------3--3------0----------|
|--0------2--2-----------------| (x10)
|--0------0--0-----------------|
|--2---------------------------|
|--3---------------------------|
   G      D  D      C

Gtr 2.
|---------7-------------10----7--------------------------------|
|-------------8---10--------------8-----------8----------------|
|---------------------------------------7/9--------9p7---------|
|---------------------------------------7/9--------9p7---------|
|--------------------------------------------------------------|
|--------------------------------------------------------------|


|--0~----0~--------0~----0~----|
|--1~----1~--------1~----1~----|
|--2~--------------2~----------|
|--2~--------------2~----------|
|--0~--------------0~----------|
|------------------------------|
   Am              Am


Gtr 1.
|--3------2--2------0----------|
|--3------3--3------0----------|
|--0------2--2-----------------| (x2)
|--0------0--0-----------------|
|--2---------------------------|
|--3---------------------------|
   G      D  D      C

Gtr 2.
|---------7-------------10----7--------------------------------|
|-------------8---10--------------8-----------8----------------|
|---------------------------------------7/9--------9p7---------|
|---------------------------------------7/9--------9p7---------|
|--------------------------------------------------------------|
|--------------------------------------------------------------|


|--0~----0~--------0~----3~----------|
|--1~-------1~-----1~--------1~------|
|--2~--------------2~----------------|
|--2~--------------2~----------------|
|--0~--------------0~----------------|
|------------------------------------|
   Am              Am


Gtr 1.
|--3------2--2------0----------|
|--3------3--3------0----------|
|--0------2--2-----------------| (x2)
|--0------0--0-----------------|
|--2---------------------------|
|--3---------------------------|
   G      D  D      C

Gtr 2.
|---------7-------------10----7--------------------------------|
|-------------8---10--------------8-----------8----------------|
|---------------------------------------7/9--------9p7---------|
|---------------------------------------7/9--------9p7---------|
|--------------------------------------------------------------|
|--------------------------------------------------------------|


Chorus:
Gtr 1. (x2)
|--0--0----0-0-0-0------3--3----3-3-3-3------0--0----0-0-0-0------3--3----3-3-3----------------------------|
|--1--1----1-1-1-1------3--3----3-3-3-3------1--1----1-1-1-1------3--3----3-3-3----------------------------|
|--0--0----0-0-0-0------0--0----0-0-0-0------2--2----2-2-2-2------0--0----0-0-0----------------------------|
|--2--2----2-2-2-2------0--0----0-0-0-0------2--2----2-2-2-2------0--0----0-0-0----------------------------|
|--3--3----3-3-3-3------2--2----2-2-2-2------0--0----0-0-0-0------2--2----2-2-2----------------------------|
|-----------------------3--3----3-3-3-3---------------------------3--3----3-3-3----------------------------|
   C                    G                    Am                   G

Gtr 2.
|------3~--3~----------------3~--3~---------------3~------------------3~--3~-----3~------------------------|
|--3~-------------------3~-------------------3~--------3~---------3~----------3~---------------------------|
|----------------------------------------------------------------------------------------------------------|
|----------------------------------------------------------------------------------------------------------|
|----------------------------------------------------------------------------------------------------------|
|----------------------------------------------------------------------------------------------------------|


Gtr 1.
|--0--0----0-0-0-0------3--3----3-3-3-3------0--0----0-0-0-0------3~----------------------------|
|--1--1----1-1-1-1------3--3----3-3-3-3------1--1----1-1-1-1------3~----------------------------|
|--0--0----0-0-0-0------0--0----0-0-0-0------2--2----2-2-2-2------2~----------------------------|
|--2--2----2-2-2-2------0--0----0-0-0-0------2--2----2-2-2-2------0~----------------------------|
|--3--3----3-3-3-3------2--2----2-2-2-2------0--0----0-0-0-0------------------------------------|
|-----------------------3--3----3-3-3-3---------------------------------------------------------|
   C                    G                    Am                  Dsus

|------3~--3~---------------3~--3~---------------3~---------------3~----------------------------|
|--3~-------------------3~-------------------3~------3~-----------3~----------------------------|
|-----------------------------------------------------------------------------------------------|
|-----------------------------------------------------------------------------------------------|
|-----------------------------------------------------------------------------------------------|
|-----------------------------------------------------------------------------------------------|

Post-Chorus:(x2)
Gtr 1.
|---------7-------------10----7--------------------------------|
|-------------8---10--------------8-----------8----------------|
|---------------------------------------7/9--------9p7---------|
|---------------------------------------7/9--------9p7---------|
|--------------------------------------------------------------|
|--------------------------------------------------------------|

Gtr 2.
|--3------2--2---------0-----3--------2--2-------0-------------|
|--3------3--3---------1-----3--------3--3-------1-------------|
|--0------2--2---------0-----0--------2--2-------0-------------|
|--0------0--0---------2-----0--------0--0-------2-------------|
|--2-------------------3-----2-------------------3-------------|
|--3-------------------------3---------------------------------|
   G      D  D         C     G        D  D       C

Verse 2:
Gtr 1.
|--3------2--2------0----------|
|--3------3--3------0----------|
|--0------2--2-----------------| (x8)
|--0------0--0-----------------|
|--2---------------------------|
|--3---------------------------|
   G      D  D      C


Gtr 2.
|-------------------3~---------|
|---------0h1h3----------------|
|------------------------------|
|------------------------------|
|------------------------------|
|------------------------------|


|--0~----0~--------0~----0~----|
|--1~----1~--------1~----1~----|
|--2~--------------2~----------|
|--2~--------------2~----------|
|--0~--------------0~----------|
|------------------------------|
   Am              Am


Gtr 1.
|--3------2--2------0----------|
|--3------3--3------0----------|
|--0------2--2-----------------| (x2)
|--0------0--0-----------------|
|--2---------------------------|
|--3---------------------------|
   G      D  D      C


Gtr 2.
|-------------------3~---------|
|---------0h1h3----------------|
|------------------------------|
|------------------------------|
|------------------------------|
|------------------------------|


|--0~----0~--------0~----3~----------|
|--1~-------1~-----1~--------1~------|
|--2~--------------2~----------------|
|--2~--------------2~----------------|
|--0~--------------0~----------------|
|------------------------------------|
   Am              Am


Gtr 1.
|--3------2--2------0----------|
|--3------3--3------0----------|
|--0------2--2-----------------| (x2)
|--0------0--0-----------------|
|--2---------------------------|
|--3---------------------------|
   G      D  D      C


Gtr 2.
|-------------------3~---------|
|---------0h1h3----------------|
|------------------------------|
|------------------------------|
|------------------------------|
|------------------------------|

Chorus:
Gtr 1. (x2)
|--0--0----0-0-0-0------3--3----3-3-3-3------0--0----0-0-0-0------3--3----3-3-3----------------------------|
|--1--1----1-1-1-1------3--3----3-3-3-3------1--1----1-1-1-1------3--3----3-3-3----------------------------|
|--0--0----0-0-0-0------0--0----0-0-0-0------2--2----2-2-2-2------0--0----0-0-0----------------------------|
|--2--2----2-2-2-2------0--0----0-0-0-0------2--2----2-2-2-2------0--0----0-0-0----------------------------|
|--3--3----3-3-3-3------2--2----2-2-2-2------0--0----0-0-0-0------2--2----2-2-2----------------------------|
|-----------------------3--3----3-3-3-3---------------------------3--3----3-3-3----------------------------|
   C                    G                    Am                   G

Gtr 2.
|------3~--3~----------------3~--3~---------------3~------------------3~--3~-----3~------------------------|
|--3~-------------------3~-------------------3~--------3~---------3~----------3~---------------------------|
|----------------------------------------------------------------------------------------------------------|
|----------------------------------------------------------------------------------------------------------|
|----------------------------------------------------------------------------------------------------------|
|----------------------------------------------------------------------------------------------------------|


Gtr 1.
|--0--0----0-0-0-0------3--3----3-3-3-3------0--0----0-0-0-0------3~----------------------------|
|--1--1----1-1-1-1------3--3----3-3-3-3------1--1----1-1-1-1------3~----------------------------|
|--0--0----0-0-0-0------0--0----0-0-0-0------2--2----2-2-2-2------2~----------------------------|
|--2--2----2-2-2-2------0--0----0-0-0-0------2--2----2-2-2-2------0~----------------------------|
|--3--3----3-3-3-3------2--2----2-2-2-2------0--0----0-0-0-0------------------------------------|
|-----------------------3--3----3-3-3-3---------------------------------------------------------|
   C                    G                    Am                  Dsus

|------3~--3~---------------3~--3~---------------3~---------------3~----------------------------|
|--3~-------------------3~-------------------3~------3~-----------3~----------------------------|
|-----------------------------------------------------------------------------------------------|
|-----------------------------------------------------------------------------------------------|
|-----------------------------------------------------------------------------------------------|
|-----------------------------------------------------------------------------------------------|

Verse 3:
|--3------2--2------0----------|
|--3------3--3------0----------|
|--0------2--2-----------------| (x12)
|--0------0--0-----------------|
|--2---------------------------|
|--3---------------------------|
   G      D  D      C


|--0~----0~--------0~----0~----|
|--1~----1~--------1~----1~----|
|--2~--------------2~----------|
|--2~--------------2~----------|
|--0~--------------0~----------|
|------------------------------|


|--3------2--2------0----------|
|--3------3--3------0----------|
|--0------2--2-----------------| (x2)
|--0------0--0-----------------|
|--2---------------------------|
|--3---------------------------|
   G      D  D      C

|--0~----0~--------0~----3~----------|
|--1~-------1~-----1~--------1~------|
|--2~--------------2~----------------|
|--2~--------------2~----------------|
|--0~--------------0~----------------|
|------------------------------------|
   Am              Am


|--3------2--2------0----------|
|--3------3--3------0----------|
|--0------2--2-----------------| (x2)
|--0------0--0-----------------|
|--2---------------------------|
|--3---------------------------|
   G      D  D      C

Chorus:
Gtr 1. (x2)
|--0--0----0-0-0-0------3--3----3-3-3-3------0--0----0-0-0-0------3--3----3-3-3----------------------------|
|--1--1----1-1-1-1------3--3----3-3-3-3------1--1----1-1-1-1------3--3----3-3-3----------------------------|
|--0--0----0-0-0-0------0--0----0-0-0-0------2--2----2-2-2-2------0--0----0-0-0----------------------------|
|--2--2----2-2-2-2------0--0----0-0-0-0------2--2----2-2-2-2------0--0----0-0-0----------------------------|
|--3--3----3-3-3-3------2--2----2-2-2-2------0--0----0-0-0-0------2--2----2-2-2----------------------------|
|-----------------------3--3----3-3-3-3---------------------------3--3----3-3-3----------------------------|
   C                    G                    Am                   G

Gtr 2.
|------3~--3~----------------3~--3~---------------3~------------------3~--3~-----3~------------------------|
|--3~-------------------3~-------------------3~--------3~---------3~----------3~---------------------------|
|----------------------------------------------------------------------------------------------------------|
|----------------------------------------------------------------------------------------------------------|
|----------------------------------------------------------------------------------------------------------|
|----------------------------------------------------------------------------------------------------------|


Gtr 1.
|--0--0----0-0-0-0------3--3----3-3-3-3------0--0----0-0-0-0------3~----------------------------|
|--1--1----1-1-1-1------3--3----3-3-3-3------1--1----1-1-1-1------3~----------------------------|
|--0--0----0-0-0-0------0--0----0-0-0-0------2--2----2-2-2-2------2~----------------------------|
|--2--2----2-2-2-2------0--0----0-0-0-0------2--2----2-2-2-2------0~----------------------------|
|--3--3----3-3-3-3------2--2----2-2-2-2------0--0----0-0-0-0------------------------------------|
|-----------------------3--3----3-3-3-3---------------------------------------------------------|
   C                    G                    Am                  Dsus

|------3~--3~---------------3~--3~---------------3~---------------3~----------------------------|
|--3~-------------------3~-------------------3~------3~-----------3~----------------------------|
|-----------------------------------------------------------------------------------------------|
|-----------------------------------------------------------------------------------------------|
|-----------------------------------------------------------------------------------------------|
|-----------------------------------------------------------------------------------------------|


Post-Chorus:(x2)
|---------7-------------10----7--------------------------------|
|-------------8---10--------------8-----------8----------------|
|---------------------------------------7/9--------9p7---------|
|---------------------------------------7/9--------9p7---------|
|--------------------------------------------------------------|
|--------------------------------------------------------------|


Outro:(fade out)
Gtr 1.
|---------7-------------10----7--------------------------------|
|-------------8---10--------------8-----------8----------------|
|---------------------------------------7/9--------9p7---------|
|---------------------------------------7/9--------9p7---------|
|--------------------------------------------------------------|
|--------------------------------------------------------------|

Gtr 2.
|--3------2--2---------0-----3--------2--2-------0-------------|
|--3------3--3---------1-----3--------3--3-------1-------------|
|--0------2--2---------0-----0--------2--2-------0-------------|
|--0------0--0---------2-----0--------0--0-------2-------------|
|--2-------------------3-----2-------------------3-------------|
|--3-------------------------3---------------------------------|
   G      D  D         C     G        D  D       C
Tap to rate this tab
# A B C D E F G H I J K L M N O P Q R S T U V W X Y Z