Song name
# A B C D E F G H I J K L M N O P Q R S T U V W X Y Z

John Cougar Mellencamp - Small Town Acoustic tab

Song: Small Town Acoustic
Artist: John Mellencamp
Standard Tuning
Capo 4


Intro/Verse
e|---x-x-x-x-x-x-x-x-x-x-x-x------------x-x-x-x-x-2-2-2-2-2--------------|
B|---3-3-3-3-3-3-3-3-3-3-3-3------------1-1-0-1-1-3-3-3-3-3--------------|
G|---0-0-2p0-0-0-0-0-0-2-2-0------------0-0-0-0-0-2-2-0-2-2--------------|
D|---0-0-0-0-4-2-2-2-2-0-0-0--x3-then---2-2-2-2-2-0-0-0-0-0--------------|
A|---x-x-x-x-0-3-3-3-3-x-x-x------------0-0-0-0-0-x-x-x-x-x--------------|
E|---3-3-x-x-x-x-x-x-x-x-x-x------------x-x-x-x-x-x-x-x-x-x--------------|

Chorus
e|--3-3-3-3-3-3-3-3-3-3-3-3-3-3-3-3-3-3-3-2-2-2-2-2-2-2-2-------|
B|--3-3-3-3-3-3-3-3-3-3-3-3-3-3-3-3-3-3-3-3-3-3-3-3-3-3-3-------|
G|--0-0-0-0-0-0-0-0-0-0-0-0-0-0-0-0-0-0-0-2-2-2-2-2-2-2-2-------|
D|--2-2-2-0-0-0-2-2-2-0-0-0-0-2-2-2-0-0-0-0-0-0-0-0-0-0-0---x2--|
A|--3-3-3-2-2-2-3-3-3-2-2-2-2-3-3-3-2-2-2-x-x-x-x-x-x-x-x-------|
E|--x-x-x-3-3-3-x-x-x-3-3-3-3-x-x-x-3-3-3-x-x-x-x-x-x-x-x-------|

First part of Intro/Verse x2

Bridge?
e|---3----------3------3-3---------3----------3----------2-2-2-3-2-2-----|
B|---3----------3------3-3---------3----------3----------3-3-3-3-3-3-----|
G|---0----------0------0-0---------0----------0----------2-2-2-2-2-2-----|
D|---2--x16ish--0--x5--2-0--x5-----2--x16ish--0--x4----0-0-0-0-0-0-0-----|
A|---2----------2------3-2---------2----------2-----0h2--x-x-x-x-x-x-----|
E|---0----------3--------3-----3-2-0----------3----------x-x-x-x-x-x-----|

e|---3----------3-----3-3-3-3------2-2-2-3-2-2-------2-2-2-3-2-2-2-|
B|---3----------3-----3-3-3-3------3-3-3-3-3-3-------3-3-3-3-3-3-3-|
G|---0----------0-----0-0-0-0------2-2-2-2-2-2-------2-2-2-2-2-2-2-|
D|---2--x16ish--0--x5-2-0-0-0----0-0-0-0-0-0-0-----0-0-0-0-0-0-0-0-|
A|---2----------2-----3-2-2-2-0h2--x-x-x-x-x-x--0h2--x-x-x-x-x-x-x-|
E|---0----------3-----x-3-3-3------x-x-x-x-x-x-------x-x-x-x-x-x-x-|

Next Verse           Then back to regular Intro/Verse      End On
e|---------0------    e|---x-x-x-x-x-x-x-x-x-x-x-x--      e|--3--|
B|----------3-----    B|---3-3-3-3-3-3-3-3-3-3-3-3--      B|--3--|
G|-----------0----    G|---0-0-2p0-0-0-0-0-0-2-2-0--      G|--0--|
D|----0~----------    D|---0-0-0-0-4-2-2-2-2-0-0-0--      D|--2--|
A|------3~--------    A|---x-x-x-x-0-3-3-3-3-x-x-x--      A|--3--|
E|--3~------------    E|---3-3-x-x-x-x-x-x-x-x-x-x--      E|--x--|


~ Let Ring
h Hammer On
p Pull Off
Tap to rate this tab
 
# A B C D E F G H I J K L M N O P Q R S T U V W X Y Z