Song name
# A B C D E F G H I J K L M N O P Q R S T U V W X Y Z

John De Sohn - Long Time tab

Hope this will help you. Everyhing is not correct i think! Enjoy!

Capo on 2nd! 
       Am                   C
e|------3--------------------------------3----|
B|------1------1-----------------------1------|
G|----------------2------------------0--------|
D|--------------------------------------------|
A|-----0----------------------2h3-------------|
E|--------------------------------------------|


        F                                   G                    Am  
e|-------------------------3-------------------------3----------------------|
B|---------1---------------1-----1-----------------0--------------1---------|
G|-------2---2---------------------2-------------0--------------2---2-------|
D|--3--3-------3--3--------3----------------------------------2-------2-----|
A|----------------------------------------------------------0-----------0---|
E|-------------------------------------------1h3----------------------------|
Tap to rate this tab
# A B C D E F G H I J K L M N O P Q R S T U V W X Y Z