Song name
# A B C D E F G H I J K L M N O P Q R S T U V W X Y Z

John Denver - Im Sorry tab

This is the intro to "I'm Sorry" as played by John on classical
guitar at the Wildlife Concert and on the CD "The Best of John
Denver Live."

|--------------|--------------|--------------|--------------|
|-----0--------|-----0--------|-----0--------|--------------|
|-------0------|-------0------|-------0------|--------------|
|---------4----|---------2----|---------0----|--------------|
|--------------|--------------|--------------|----0---------|
|--3-----------|--3-----------|--3-----------|--3---3-------|  2X


|--------------|--------------|--------------|--------------|
|----0---------|----0---------|----0---------|----0---------|
|------0-------|------0-------|------0-------|------0-------|
|--------0-----|--------2-----|--------4-----|--------4-----|
|--------------|--------------|--------------|--------------|
|-3------------|-3------------|-3------------|--3-----------|


|--------------|--------------|--------------|--------------|
|---0----------|----0---------|----0---------|--------------|
|-----0--------|------0-------|------0-------|--------------|
|-------4------|--------2-----|--------0-----|--------------|
|--------------|--------------|--------------|-----0--------|
|-3------------|-3------------|-3------------|--3----3------|

It's cold here in the city....
Tap to rate this tab
# A B C D E F G H I J K L M N O P Q R S T U V W X Y Z