Guitaretab - guitar tabs
Song name
# A B C D E F G H I J K L M N O P Q R S T U V W X Y Z

John Denver - Unchained Melody tab

Unchained Melody - John Denver
Tabbed by:Ryan B. Albert
Date:March 2,2007
Email:ryan_albertstein@yahoo.com

Tuning:EADGBe

 Intro:         C
e|--------0-----------0------|
B|------1---1-------1---1----|
G|----0-------0---0-------0--|
D|---------------------------|
A|--3-----------3------------|
E|---------------------------|

 Verse:         C                          Am
e|--------0-----------0------|-------0-----------0------|
B|------1---1-------1---1----|-----1---1-------1---1----|
G|----0-------0---0-------0--|---2-------2---2-------0--|
D|---------------------------|--------------------------|
A|--3-----------3------------|-0-----------0------------|
E|---------------------------|--------------------------|
   Oh,                         my love,

                F                          G
e|--------1-----------1------|-------3-----------3------|
B|------1---1-------1---1----|-----0---0-------0---0----|
G|----2-------2---2-------2--|---0-------0---0-------0--|
D|---------------------------|--------------------------|
A|---------------------------|--------------------------|
E|--1-----------1------------|-3-----------3------------|
     my darling               I've hungered for

                C                         Am
e|--------0-----------0------|-------0-----------0------|
B|------1---1-------1---1----|-----1---1-------1---1----|
G|----0-------0---0-------0--|---2-------2---2-------0--|
D|---------------------------|--------------------------|
A|--3-----------3------------|-0-----------0------------|
E|---------------------------|--------------------------|
     your touch                  A long,
             
          G           G7
e|--------3-----------1------|
B|------0---0-------0---0----|
G|----0-------0---0-------0--|
D|---------------------------|
A|---------------------------|
E|--3-----------3------------|
     lonely time

                C                         Am
e|--------0-----------0------|-------0-----------0------|
B|------1---1-------1---1----|-----1---1-------1---1----|
G|----0-------0---0-------0--|---2-------2---2-------0--|
D|---------------------------|--------------------------|
A|--3-----------3------------|-0-----------0------------|
E|---------------------------|--------------------------|
  And time                       goes by,

                F                          G
e|--------1-----------1------|-------3-----------3------|
B|------1---1-------1---1----|-----0---0-------0---0----|
G|----2-------2---2-------2--|---0-------0---0-------0--|
D|---------------------------|--------------------------|
A|---------------------------|--------------------------|
E|--1-----------1------------|-3-----------3------------|
     so slowly               And time can do 

                C                         Am
e|--------0-----------0------|-------0-----------0------|
B|------1---1-------1---1----|-----1---1-------1---1----|
G|----0-------0---0-------0--|---2-------2---2-------0--|
D|---------------------------|--------------------------|
A|--3-----------3------------|-0-----------0------------|
E|---------------------------|--------------------------|
     so much                    are you still
[ Tab from: http://www.guitaretab.com/j/john-denver/152539.html ]
          G           G7
e|--------3-----------1------|
B|------0---0-------0---0----|
G|----0-------0---0-------0--|
D|---------------------------|
A|---------------------------|
E|--3----------3-------------|
     mine.....
 
                C                          G
e|--------0-----------0------|-------3-----------3------|
B|------1---1-------1---1----|-----0---0-------0---0----|
G|----0-------0---0-------0--|---0-------0---0-------0--|
D|---------------------------|--------------------------|
A|--3-----------3------------|--------------------------|
E|---------------------------|-3-----------3------------|
     i need                     your love

                Am                        Em
e|--------0-----------0------|-------0-----------0------|
B|------1---1-------1---1----|-----0---0-------0---0----|
G|----2-------2---2-------2--|---0-------0---0-------0--|
D|---------------------------|--------------------------|
A|--0-----------0------------|--------------------------|
E|---------------------------|-0-----------0------------|
     i need                     your love


                F                          G
e|--------1-----------1------|-------3-----------3------|
B|------1---1-------1---1----|-----0---0-------0---0----|
G|----2-------2---2-------2--|---0-------0---0-------0--|
D|---------------------------|--------------------------|
A|---------------------------|--------------------------|
E|--1-----------1------------|-3-----------3------------|
      God speed your love        to.........
          
          C                   
e|--------0-----------0------|
B|------1---1-------1---1----|
G|----0-------0---3-------3--|
D|---------------------------|
A|--3-----------3------------|
E|---------------------------|
     me

 Refrain: F           G               F           D#
e|--------1-----------3------|--------1-----------6-----|
B|------1---1-------0---0----|------1---1-------8---8---|
G|----2-------2---0-------0--|----2-------2---8-------8-|
D|---------------------------|--------------------------|
A|---------------------------|--------------6-----------|
E|--1-----------3------------|--1-----------------------|
     Lonely rivers flow          to the sea, to the sea

          F           G                     C
e|--------1-----------3------|--------0-----------0-----|
B|------1---1-------0---0----|------1---1-------1---1---|
G|----2-------2---0-------0--|----0-------0---0-------0-|
D|---------------------------|--------------------------|
A|---------------------------|--3-----------3-----------|
E|--1-----------3------------|--------------------------|
     To the      open arms    of the sea..

          F           G               F           C
e|--------1-----------3------|--------1-----------0-----|
B|------1---1-------0---0----|------1---1-------1---1---|
G|----2-------2---0-------0--|----2-------2---0-------0-|
D|---------------------------|--------------------------|
A|---------------------------|--------------3-----------|
E|--1-----------3------------|--1-----------------------|
     Lonely rivers sigh         wait for me, wait for me


          F           G                     C
e|--------1-----------3------|--------0-----------0-----|
B|------1---1-------0---0----|------1---1-------1---1---|
G|----2-------2---0-------0--|----0-------0---0-------0-|
D|---------------------------|--------------------------|
A|---------------------------|--3-----------3-----------|
E|--1-----------3------------|--------------------------|
     I'll be coming home,      wait for me..

(Repeat verse)
          
       Hi nga pala sa lahat ng nag-gagandahang chicks
     sa TIPQC,luv you gurls!hehehe... sa mga friends ko iane,
     david,jay,sa prof kong moffats na si Donald Llaneta, 
     rock on sir!
       You guys! hope you enjoy playing this tab...


Related for Unchained Melody tab
Unchained Melody chords by John Denver