Song name
# A B C D E F G H I J K L M N O P Q R S T U V W X Y Z

John Denver - Annies Song tab

\---Song:-Annie's-Song----------------\
 \---Composer:-John-Denver-------------\
  \---Transcription-by:Christian Liang--\
  /---E-Mail:christian.liang@gmail.com--/
 /---http://www.chrisliang.com---------/
/---Enjoy!----------------------------/

==========================================================================
                   Annie's Song by John Denver (1943-)
==========================================================================

Key G
Time 3/4
Beat 130


[1]
E||------3-----|-------3-----|-------3-----|-------3-----|-3======-3---|
B||--------0---|---1-----1---|---------0---|---1-----1---|-------------|
G||*---0-----0-|-----0-----0-|-----0-----0-|-----0-----0-|-0==========-|
D||*-0---------|-2==========-|---0---------|-2==========-|-0==========-|
A||------------|-------------|-------------|-------------|-------------|
E||3==========-|-------------|-3==========-|-------------|-3==========-|
 | | | | | | | | | | | | | | | | | | | | | | | | | | | | | | | | | | | |
 |             |             |             |             |             | 
L  3   4         2 1   4 1     3     4       2 1   4 1     4       4
                                                           3
R  p i m a m i   p m i a m i   p i m a m i   p m i a m i   amip    a

[6]
E|-3---2---0---|-3==========-|-2==========-|---------0-0-|-0---2---3---|
B|-------------|-------1-----|-----3-------|-------------|-------------|
G|---0---0---0-|-----0-----0-|---2---2---2-|-------0-----|---0---0---0-|
D|-------------|---2-----2---|-0======-0==-|-----2-------|-------------|
A|-----0---2---|-3==========-|-------------|---2---------|-3==========-|
E|-3==========-|-------------|-------------|-0==========-|-------------|
 | | | | | | | | | | | | | | | | | | | | | | | | | | | | | | | | | | | |
 |             |             |             |             |             | 
L  4   4   2     4 2   1 2     2 1 3 1   1     2 3         3   2   4
   4             3
R  a i a i a i   a i m a i m   a i m i p i   p p p i m i   a i a i a i
   p   p   p     p             p                           p

[11]
E|-------------|-------------|-------------|-----0---2---|-3==========-|
B|-3---0-----0-|-------0-----|-------0-----|-3-----------|-------1-----|
G|---------0---|-----0-----0-|-----0-----0-|---0---0---0-|-----0-----0-|
D|---0---0-----|---4-----4---|---2-----2---|-------------|---2-----2---|
A|-------------|-------------|-------------|-------------|-3==========-|
E|-3==========-|-3==========-|-3==========-|-3==========-|-------------|
 | | | | | | | | | | | | | | | | | | | | | | | | | | | | | | | | | | | |
 |             |             |             |             |             | 
L  4             3 4     4     3 2     2     4       2     4 2   1 2
   3                                         3             3
R  a i a i m a   p i m a i m   p i m a i m   a i a i a i   a i m a i m 
   p                                         p             p

[16]II..........
E|-2==========-|---------0-0-|-0---2---3---|-2==========-|-------------|
B|-------3-----|-------1-----|-------------|-----3-------|-----3---3---|
G|-----2-----2-|-----0-------|---0---0---0-|---2---2---2-|---2---2---2-|
D|---4-----4---|---2---------|-------------|-0======-0==-|-------------|
A|-2==========-|-0==========-|-3==========-|-------------|-3==========-|
E|-------------|-------------|-------------|-------------|-------------|
 | | | | | | | | | | | | | | | | | | | | | | | | | | | | | | | | | | | |
 |             |             |             |             |             | 
L  1 3 1 2 3 1     2   1       3   2   4     2 1 3 1   1   2 1 3 1 3 1
   1
R  a i m a i m   p i m a m i   a i a i a i   a i m i p i   p i m i m i
   p                           p             p

[21]
E|---------3-3-|-3---2---0---|-3==========-|-5==========-|-7======-3-3-|
B|-----3-------|-------------|-----1-------|-----3-------|-5==========-|
G|---0---0-----|---0---0---0-|---0---0---0-|-------------|-0==========-|
D|-------------|-------------|-------------|---4---4---4-|-------------|
A|-3======-0==-|-----0---2---|-3======-3==-|-5======-5==-|-------------|
E|-------------|-3==========-|-------------|-------------|-0==========-|
 | | | | | | | | | | | | | | | | | | | | | | | | | | | | | | | | | | | |
 |             |             |             |             |             | 
L  2   3   4 4   4   4   2     4   1   3     4 2 1 2 3 2   4       4 4
                 3             3             3             1
R  p i m i a m   a i a i a i   a i m i p i   a i m i p i   amip    a m
           p     p   p     p   p             p            

[26]
E|-3---2---0---|-------------|-------------|-------------|-----0---2---|
B|-------------|-3---0-----0-|-------0-----|-------0-----|-3-----------|
G|---0---0---0-|---------0---|-----0-----0-|-----0-----0-|---0---0---0-|
D|-------------|---0---0-----|---4-----4---|---2-----2---|-------------|
A|-3==========-|-------------|-------------|-------------|-------------|
E|-------------|-3==========-|-3==========-|-3==========-|-3==========-|
 | | | | | | | | | | | | | | | | | | | | | | | | | | | | | | | | | | | |
 |             |             |             |             |             | 
L  4   2         4             3 4     4     3 2     2     4       2
   3             3                                         3
R  a i a i a i   a i a i m a   p i m a i m   p i m a i m   a i a i a i
   p             p                                         p

[31]             II..........                   
E|-3==========-|-2==========-|---------0---|-2---3---5---|-3====-3====-|
B|-------1-----|-------3-----|-------1-----|---3---3-----|---------0---|
G|-----0-----0-|-----2-----2-|-----0-------|-----4---5---|-----0-----0-|
D|---2-----2---|---4-----4---|---2---------|-0==========-|---0---------|
A|-3==========-|-2==========-|-0==========-|-------------|-------------|
E|-------------|-------------|-------------|-------------|-3==========-|
 | | | | | | | | | | | | | | | | | | | | | | | | | | | | | | | | | | | |
 |             |             |             |             |             | 
L  4 2   1 2     1 3 1 2 3 1     2   1       2 3 2 1 4     4     4
   3             1                               3   3     3
R  a i m a i m   a i m a i m   p p i m a     m i m i m     a i m a m i
   p             p                           p   p   p     p

[36]                                         Poco rit.
E|-------3-----|-------3-----|-------3-----|-------3-----|-3==========||
B|---1-----1---|---------0---|---1-----1---|---------0---|-0==========||
G|-----0-----0-|-----0-----0-|-----0-----0-|-----0-----0-|-----------*||
D|-2==========-|---0---------|-2==========-|---0---------|-0=========*||
A|-------------|-------------|-------------|-------------|------------||
E|-------------|-3==========-|-------------|-3==========-|-3==========||
 | | | | | | | | | | | | | | | | | | | | | | | | | | | | | | | | | | | |
 |             |             |             |             |             | 
L  2 1   4 1     3     4       2 1   4 1     3     4       4
                                                           3
R  p m i a m i   p i m a m i   p m i a m i   p i m a m i   amip

======
Legend
======
= = suspend/hold note
II= Barre at 2nd Fret
p = pulgar = thumb
i = indice = index                  
m = medio = middle     
a = anular = ring      
Poco rit.= slow down gradually

Oct18-2010
www.chrisliang.com
Tap to rate this tab
# A B C D E F G H I J K L M N O P Q R S T U V W X Y Z