John Denver - Take Me Home Country Roads tab

Artist: John Denver
Song: Take Me Home Country Roads
(Capo 2nd fret)


 Intro
  Q  E E E E E E Q  E E E E E E
|----3-3-3-3-3-3----3-3-3-3-3-3----|
|----0-0-0-0-0-0----0-0-0-0-0-0----|
|----0-0-0-0-0-0----0-0-0-0-0-0----|
|----0-0-0-0-0-0----0-0-0-0-0-0----|
|----2-2-2-2-2-2----2-2-2-2-2-2----|
|-3--3-3-3-3-3-3-3--3-3-3-3-3-3----|


 Verse
  Q  E E E E E E Q  E E E E E E Q  E E E E E E Q  E E E E E E
|----3-3-3-3-3-3----3-3-3-3-3-3----0-0-0-0-0-0----0-0-0-0-0-0---|
|----0-0-0-0-0-0----0-0-0-0-0-0----0-0-0-0-0-0----0-0-0-0-0-0---|
|----0-0-0-0-0-0----0-0-0-0-0-0----0-0-0-0-0-0----0-0-0-0-0-0---|
|----0-0-0-0-0-0----0-0-0-0-0-0----2-2-2-2-2-2----2-2-2-2-2-2---|
|----2-2-2-2-2-2----2-2-2-2-2-2----2-2-2-2-2-2----2-2-2-2-2-2---|
|-3--3-3-3-3-3-3-3--3-3-3-3-3-3-0--0-0-0-0-0-0-0--0-0-0-0-0-0---|


  Q  E E E E E E Q  E E E E E E Q  E E E E E E
|----2-2-2-2-2-2----2-2-2-2-2-2----0-0-0-0-0-0----|
|----3-3-3-3-3-3----3-3-3-3-3-3----1-1-1-1-1-1----|
|----2-2-2-2-2-2----2-2-2-2-2-2----0-0-0-0-0-0----|
|-0--0-0-0-0-0-0-0--0-0-0-0-0-0----2-2-2-2-2-2----|
|-------------------------------3--3-3-3-3-3-3----|
|-------------------------------------------------|


  Q  E E E E E E Q  E E E E E E
|----3-3-3-3-3-3----3-3-3-3-3-3----|
|----0-0-0-0-0-0----0-0-0-0-0-0----|
|----0-0-0-0-0-0----0-0-0-0-0-0----|
|----0-0-0-0-0-0----0-0-0-0-0-0----|
|----2-2-2-2-2-2----2-2-2-2-2-2----|
|-3--3-3-3-3-3-3-3--3-3-3-3-3-3----|


  Q  E E E E E E Q  E E E E E E Q  E E E E E E Q  E E E E E E
|----3-3-3-3-3-3----3-3-3-3-3-3----0-0-0-0-0-0----0-0-0-0-0-0---|
|----0-0-0-0-0-0----0-0-0-0-0-0----0-0-0-0-0-0----0-0-0-0-0-0---|
|----0-0-0-0-0-0----0-0-0-0-0-0----0-0-0-0-0-0----0-0-0-0-0-0---|
|----0-0-0-0-0-0----0-0-0-0-0-0----2-2-2-2-2-2----2-2-2-2-2-2---|
|----2-2-2-2-2-2----2-2-2-2-2-2----2-2-2-2-2-2----2-2-2-2-2-2---|
|-3--3-3-3-3-3-3-3--3-3-3-3-3-3-0--0-0-0-0-0-0-0--0-0-0-0-0-0---|


  Q  E E E E E E Q  E E E E E E Q  E E E E E E W
|----2-2-2-2-2-2----2-2-2-2-2-2----0-0-0-0-0-0-3----|
|----3-3-3-3-3-3----3-3-3-3-3-3----1-1-1-1-1-1-0----|
|----2-2-2-2-2-2----2-2-2-2-2-2----0-0-0-0-0-0-0----|
|-0--0-0-0-0-0-0-0--0-0-0-0-0-0----2-2-2-2-2-2-0----|
|-------------------------------3--3-3-3-3-3-3-2----|
|----------------------------------------------3----|


 Chorus
  Q  E E E E E E Q  E E E E E E Q  E E E E E E Q  E E E E E E
|----3-3-3-3-3-3----3-3-3-3-3-3----2-2-2-2-2-2----2-2-2-2-2-2---|
|----0-0-0-0-0-0----0-0-0-0-0-0----3-3-3-3-3-3----3-3-3-3-3-3---|
|----0-0-0-0-0-0----0-0-0-0-0-0----2-2-2-2-2-2----2-2-2-2-2-2---|
|----0-0-0-0-0-0----0-0-0-0-0-0-0--0-0-0-0-0-0-0--0-0-0-0-0-0---|
|----2-2-2-2-2-2----2-2-2-2-2-2---------------------------------|
|-3--3-3-3-3-3-3-3--3-3-3-3-3-3---------------------------------|


  Q  E E E E E E Q  E E E E E E Q  E E E E E E Q  E E E E E E
|----0-0-0-0-0-0----0-0-0-0-0-0----0-0-0-0-0-0----0-0-0-0-0-0---|
|----0-0-0-0-0-0----0-0-0-0-0-0----1-1-1-1-1-1----1-1-1-1-1-1---|
|----0-0-0-0-0-0----0-0-0-0-0-0----0-0-0-0-0-0----0-0-0-0-0-0---|
|----2-2-2-2-2-2----2-2-2-2-2-2----2-2-2-2-2-2----2-2-2-2-2-2---|
|----2-2-2-2-2-2----2-2-2-2-2-2-3--3-3-3-3-3-3-3--3-3-3-3-3-3---|
|-0--0-0-0-0-0-0-0--0-0-0-0-0-0---------------------------------|


  Q  E E E E E E Q  E E E E E E Q  E E E E E E Q  E E E E E E
|----3-3-3-3-3-3----3-3-3-3-3-3----2-2-2-2-2-2----2-2-2-2-2-2---|
|----0-0-0-0-0-0----0-0-0-0-0-0----3-3-3-3-3-3----3-3-3-3-3-3---|
|----0-0-0-0-0-0----0-0-0-0-0-0----2-2-2-2-2-2----2-2-2-2-2-2---|
|----0-0-0-0-0-0----0-0-0-0-0-0-0--0-0-0-0-0-0-0--0-0-0-0-0-0---|
|----2-2-2-2-2-2----2-2-2-2-2-2---------------------------------|
|-3--3-3-3-3-3-3-3--3-3-3-3-3-3---------------------------------|


  Q  E E E E E E Q  E E E E E E Q  E E E E E E Q  E E E E E E
|----0-0-0-0-0-0----0-0-0-0-0-0----3-3-3-3-3-3----3-3-3-3-3-3---|
|----1-1-1-1-1-1----1-1-1-1-1-1----0-0-0-0-0-0----0-0-0-0-0-0---|
|----0-0-0-0-0-0----0-0-0-0-0-0----0-0-0-0-0-0----0-0-0-0-0-0---|
|----2-2-2-2-2-2----2-2-2-2-2-2----0-0-0-0-0-0----0-0-0-0-0-0---|
|-3--3-3-3-3-3-3-3--3-3-3-3-3-3----2-2-2-2-2-2----2-2-2-2-2-2---|
|-------------------------------3--3-3-3-3-3-3-3--3-3-3-3-3-3---|


 Verse
  Q  E E E E E E Q  E E E E E E Q  E E E E E E Q  E E E E E E
|----3-3-3-3-3-3----3-3-3-3-3-3----0-0-0-0-0-0----0-0-0-0-0-0---|
|----0-0-0-0-0-0----0-0-0-0-0-0----0-0-0-0-0-0----0-0-0-0-0-0---|
|----0-0-0-0-0-0----0-0-0-0-0-0----0-0-0-0-0-0----0-0-0-0-0-0---|
|----0-0-0-0-0-0----0-0-0-0-0-0----2-2-2-2-2-2----2-2-2-2-2-2---|
|----2-2-2-2-2-2----2-2-2-2-2-2----2-2-2-2-2-2----2-2-2-2-2-2---|
|-3--3-3-3-3-3-3-3--3-3-3-3-3-3-0--0-0-0-0-0-0-0--0-0-0-0-0-0---|


  Q  E E E E E E Q  E E E E E E Q  E E E E E E
|----2-2-2-2-2-2----2-2-2-2-2-2----0-0-0-0-0-0----|
|----3-3-3-3-3-3----3-3-3-3-3-3----1-1-1-1-1-1----|
|----2-2-2-2-2-2----2-2-2-2-2-2----0-0-0-0-0-0----|
|-0--0-0-0-0-0-0-0--0-0-0-0-0-0----2-2-2-2-2-2----|
|-------------------------------3--3-3-3-3-3-3----|
|-------------------------------------------------|


  Q  E E E E E E Q  E E E E E E
|----3-3-3-3-3-3----3-3-3-3-3-3----|
|----0-0-0-0-0-0----0-0-0-0-0-0----|
|----0-0-0-0-0-0----0-0-0-0-0-0----|
|----0-0-0-0-0-0----0-0-0-0-0-0----|
|----2-2-2-2-2-2----2-2-2-2-2-2----|
|-3--3-3-3-3-3-3-3--3-3-3-3-3-3----|


 
  Q  E E E E E E Q  E E E E E E Q  E E E E E E Q  E E E E E E
|----3-3-3-3-3-3----3-3-3-3-3-3----0-0-0-0-0-0----0-0-0-0-0-0---|
|----0-0-0-0-0-0----0-0-0-0-0-0----0-0-0-0-0-0----0-0-0-0-0-0---|
|----0-0-0-0-0-0----0-0-0-0-0-0----0-0-0-0-0-0----0-0-0-0-0-0---|
|----0-0-0-0-0-0----0-0-0-0-0-0----2-2-2-2-2-2----2-2-2-2-2-2---|
|----2-2-2-2-2-2----2-2-2-2-2-2----2-2-2-2-2-2----2-2-2-2-2-2---|
|-3--3-3-3-3-3-3-3--3-3-3-3-3-3-0--0-0-0-0-0-0-0--0-0-0-0-0-0---|


  Q  E E E E E E Q  E E E E E E Q  E E E E E E W
|----2-2-2-2-2-2----2-2-2-2-2-2----0-0-0-0-0-0-3----|
|----3-3-3-3-3-3----3-3-3-3-3-3----1-1-1-1-1-1-0----|
|----2-2-2-2-2-2----2-2-2-2-2-2----0-0-0-0-0-0-0----|
|-0--0-0-0-0-0-0-0--0-0-0-0-0-0----2-2-2-2-2-2-0----|
|-------------------------------3--3-3-3-3-3-3-2----|
|----------------------------------------------3----|


 Chorus
  Q  E E E E E E Q  E E E E E E Q  E E E E E E Q  E E E E E E
|----3-3-3-3-3-3----3-3-3-3-3-3----2-2-2-2-2-2----2-2-2-2-2-2---|
|----0-0-0-0-0-0----0-0-0-0-0-0----3-3-3-3-3-3----3-3-3-3-3-3---|
|----0-0-0-0-0-0----0-0-0-0-0-0----2-2-2-2-2-2----2-2-2-2-2-2---|
|----0-0-0-0-0-0----0-0-0-0-0-0-0--0-0-0-0-0-0-0--0-0-0-0-0-0---|
|----2-2-2-2-2-2----2-2-2-2-2-2---------------------------------|
|-3--3-3-3-3-3-3-3--3-3-3-3-3-3---------------------------------|


  Q  E E E E E E Q  E E E E E E Q  E E E E E E Q  E E E E E E
|----0-0-0-0-0-0----0-0-0-0-0-0----0-0-0-0-0-0----0-0-0-0-0-0---|
|----0-0-0-0-0-0----0-0-0-0-0-0----1-1-1-1-1-1----1-1-1-1-1-1---|
|----0-0-0-0-0-0----0-0-0-0-0-0----0-0-0-0-0-0----0-0-0-0-0-0---|
|----2-2-2-2-2-2----2-2-2-2-2-2----2-2-2-2-2-2----2-2-2-2-2-2---|
|----2-2-2-2-2-2----2-2-2-2-2-2-3--3-3-3-3-3-3-3--3-3-3-3-3-3---|
|-0--0-0-0-0-0-0-0--0-0-0-0-0-0---------------------------------|


  Q  E E E E E E Q  E E E E E E Q  E E E E E E Q  E E E E E E
|----3-3-3-3-3-3----3-3-3-3-3-3----2-2-2-2-2-2----2-2-2-2-2-2---|
|----0-0-0-0-0-0----0-0-0-0-0-0----3-3-3-3-3-3----3-3-3-3-3-3---|
|----0-0-0-0-0-0----0-0-0-0-0-0----2-2-2-2-2-2----2-2-2-2-2-2---|
|----0-0-0-0-0-0----0-0-0-0-0-0-0--0-0-0-0-0-0-0--0-0-0-0-0-0---|
|----2-2-2-2-2-2----2-2-2-2-2-2---------------------------------|
|-3--3-3-3-3-3-3-3--3-3-3-3-3-3---------------------------------|


  Q  E E E E E E Q  E E E E E E Q  E E E E E E Q  E E Q  Q
|----0-0-0-0-0-0----0-0-0-0-0-0----3-3-3-3-3-3----3-3---------|
|----1-1-1-1-1-1----1-1-1-1-1-1----0-0-0-0-0-0----0-0---------|
|----0-0-0-0-0-0----0-0-0-0-0-0----0-0-0-0-0-0----0-0---------|
|----2-2-2-2-2-2----2-2-2-2-2-2----0-0-0-0-0-0----0-0---------|
|-3--3-3-3-3-3-3-3--3-3-3-3-3-3----2-2-2-2-2-2----2-2---------|
|-------------------------------3--3-3-3-3-3-3-3--3-3-3--2----|


 Bridge
  W        W        Q  E E E E E E Q  E E E E E E
|-0--------2-----------3-3-3-3-3-3----3-3-3-3-3-3----|
|-0--------3-----------0-0-0-0-0-0----0-0-0-0-0-0----|
|-0--------2-----------0-0-0-0-0-0----0-0-0-0-0-0----|
|-2--------0-----------0-0-0-0-0-0----0-0-0-0-0-0----|
|-2--------------------2-2-2-2-2-2----2-2-2-2-2-2----|
|-0-----------------3--3-3-3-3-3-3-3--3-3-3-3-3-3----|


  Q  E E E E E E Q  E E E E E E Q  E E E E E E Q  E E E E E E
|----0-0-0-0-0-0----3-3-3-3-3-3----2-2-2-2-2-2----2-2-2-2-2-2---|
|----1-1-1-1-1-1----0-0-0-0-0-0----3-3-3-3-3-3----3-3-3-3-3-3---|
|----0-0-0-0-0-0----0-0-0-0-0-0----2-2-2-2-2-2----2-2-2-2-2-2---|
|----2-2-2-2-2-2----0-0-0-0-0-0-0--0-0-0-0-0-0-0--0-0-0-0-0-0---|
|-3--3-3-3-3-3-3----2-2-2-2-2-2---------------------------------|
|----------------3--3-3-3-3-3-3---------------------------------|


  Q  E E E E E E Q  E E E E E E Q  E E E E E E Q  E E E E E E
|----0-0-0-0-0-0----1-1-1-1-1-1----0-0-0-0-0-0----3-3-3-3-3-3---|
|----0-0-0-0-0-0----1-1-1-1-1-1----1-1-1-1-1-1----0-0-0-0-0-0---|
|----0-0-0-0-0-0----2-2-2-2-2-2----0-0-0-0-0-0----0-0-0-0-0-0---|
|----2-2-2-2-2-2----3-3-3-3-3-3----2-2-2-2-2-2----0-0-0-0-0-0---|
|----2-2-2-2-2-2----3-3-3-3-3-3-3--3-3-3-3-3-3----2-2-2-2-2-2---|
|-0--0-0-0-0-0-0-1--1-1-1-1-1-1----------------3--3-3-3-3-3-3---|


  Q  E E E E E E Q  E E E E E E Q  E E E E E E Q  E E E E E E
|----2-2-2-2-2-2----2-2-2-2-2-2----2-2-2-2-2-2----2-2-2-2-2-2---|
|----3-3-3-3-3-3----3-3-3-3-3-3----1-1-1-1-1-1----1-1-1-1-1-1---|
|----2-2-2-2-2-2----2-2-2-2-2-2----2-2-2-2-2-2----2-2-2-2-2-2---|
|-0--0-0-0-0-0-0-0--0-0-0-0-0-0-0--0-0-0-0-0-0-0--0-0-0-0-0-0---|
|---------------------------------------------------------------|
|---------------------------------------------------------------|


 Chorus
  Q  E E E E E E Q  E E E E E E Q  E E E E E E Q  E E E E E E
|----3-3-3-3-3-3----3-3-3-3-3-3----2-2-2-2-2-2----2-2-2-2-2-2---|
|----0-0-0-0-0-0----0-0-0-0-0-0----3-3-3-3-3-3----3-3-3-3-3-3---|
|----0-0-0-0-0-0----0-0-0-0-0-0----2-2-2-2-2-2----2-2-2-2-2-2---|
|----0-0-0-0-0-0----0-0-0-0-0-0-0--0-0-0-0-0-0-0--0-0-0-0-0-0---|
|----2-2-2-2-2-2----2-2-2-2-2-2---------------------------------|
|-3--3-3-3-3-3-3-3--3-3-3-3-3-3---------------------------------|


  Q  E E E E E E Q  E E E E E E Q  E E E E E E Q  E E E E E E
|----0-0-0-0-0-0----0-0-0-0-0-0----0-0-0-0-0-0----0-0-0-0-0-0---|
|----0-0-0-0-0-0----0-0-0-0-0-0----1-1-1-1-1-1----1-1-1-1-1-1---|
|----0-0-0-0-0-0----0-0-0-0-0-0----0-0-0-0-0-0----0-0-0-0-0-0---|
|----2-2-2-2-2-2----2-2-2-2-2-2----2-2-2-2-2-2----2-2-2-2-2-2---|
|----2-2-2-2-2-2----2-2-2-2-2-2-3--3-3-3-3-3-3-3--3-3-3-3-3-3---|
|-0--0-0-0-0-0-0-0--0-0-0-0-0-0---------------------------------|


  Q  E E E E E E Q  E E E E E E Q  E E E E E E Q  E E E E E E
|----3-3-3-3-3-3----3-3-3-3-3-3----2-2-2-2-2-2----2-2-2-2-2-2---|
|----0-0-0-0-0-0----0-0-0-0-0-0----3-3-3-3-3-3----3-3-3-3-3-3---|
|----0-0-0-0-0-0----0-0-0-0-0-0----2-2-2-2-2-2----2-2-2-2-2-2---|
|----0-0-0-0-0-0----0-0-0-0-0-0-0--0-0-0-0-0-0-0--0-0-0-0-0-0---|
|----2-2-2-2-2-2----2-2-2-2-2-2---------------------------------|
|-3--3-3-3-3-3-3-3--3-3-3-3-3-3---------------------------------|


  Q  E E E E E E Q  E E E E E E Q  E E E E E E Q  E E E E E E
|----0-0-0-0-0-0----0-0-0-0-0-0----3-3-3-3-3-3----3-3-3-3-3-3---|
|----1-1-1-1-1-1----1-1-1-1-1-1----0-0-0-0-0-0----0-0-0-0-0-0---|
|----0-0-0-0-0-0----0-0-0-0-0-0----0-0-0-0-0-0----0-0-0-0-0-0---|
|----2-2-2-2-2-2----2-2-2-2-2-2----0-0-0-0-0-0----0-0-0-0-0-0---|
|-3--3-3-3-3-3-3-3--3-3-3-3-3-3----2-2-2-2-2-2----2-2-2-2-2-2---|
|-------------------------------3--3-3-3-3-3-3-3--3-3-3-3-3-3---|


  Q  E E E E E E Q  E E E E E E Q  E E E E E E Q  E E E E E E
|----2-2-2-2-2-2----2-2-2-2-2-2----3-3-3-3-3-3----3-3-3-3-3-3---|
|----3-3-3-3-3-3----3-3-3-3-3-3----0-0-0-0-0-0----0-0-0-0-0-0---|
|----2-2-2-2-2-2----2-2-2-2-2-2----0-0-0-0-0-0----0-0-0-0-0-0---|
|-0--0-0-0-0-0-0-0--0-0-0-0-0-0----0-0-0-0-0-0----0-0-0-0-0-0---|
|----------------------------------2-2-2-2-2-2----2-2-2-2-2-2---|
|-------------------------------3--3-3-3-3-3-3-3--3-3-3-3-3-3---|


  Q  E E E E E E W        Q  E E E E E E Q  Q  Q
|----2-2-2-2-2-2-2-----------3-3-3-3-3-3-3--2--3----|
|----3-3-3-3-3-3-3-----------0-0-0-0-0-0-0--3--0----|
|----2-2-2-2-2-2-2-----------0-0-0-0-0-0-0--2--0----|
|-0--0-0-0-0-0-0-0-----------0-0-0-0-0-0-0--0--0----|
|----------------------------2-2-2-2-2-2-2-----2----|
|-------------------------3--3-3-3-3-3-3-3-----3----|



www.guitarstars.biz
Tap to rate this tab
 
# A B C D E F G H I J K L M N O P Q R S T U V W X Y Z