Song name
# A B C D E F G H I J K L M N O P Q R S T U V W X Y Z

John Denver - Dreamland Express chords

Highlighted       Show chord diagrams
Intro lick

E --------------------------------------------------------------------------------------|
B --3-----------------------------------------------------------------------------------|
G-----0------------------------------------------------0----2-----0---------------------|
D---------4---2---4---2----0--------------0----2---------------------4----2-------------|
A----------------------------------2---3------------------------------------------------|
E---------------------------------------------------------------------------------------|

E -----------------------------------------------------------------------------------|
B --3--------------------------------------------------------------------------------|
G-----0------------------------------------------------0----2------------------------|
D---------4---2---4---2----0--------------0----2-------------------------------------|
A----------------------------------2---3---------------------------------------------|
E------------------------------------------------------------------------------------|


Verse 1
     G               Em             C                D
I caught a ride on the dreamland express last night
      G                  Em          C           D
I was sailing on an ocean of blue,
 G                 Em                   C          D                       G     Em       C
When right there by my side, much to my surprise; was you

Verse 2
G               Em               C                  D
I said, “Come over here, baby, let me look in your eyes…
G                 Em         C             D
Let me see the very heart of you.”
G                  Em                C                    D           G       Em     C
And I couldn’t believe it, to concede that my dream had come true

Verse 3

She said, “Hey there, sweet daddy, everything’s all right…
For miles there’s not a telephone line…
There’s not a soul to disturb us, don’t be nervous, just come and be mine”

Chorus:
D/F#                         D      G
Let me be the end of your rainbow,
D/F#                        D   G
Let me be the stars up above,
D/F#                             D    G
Let me be the one that you long for darling,
C                   D                   G             Em
Let me be the one that you love      (woh oh)
C                    D                  G
Let me be the one that you love

Verse 4

Well it’s 4 in the morning, honey I can’t sleep
I can’t seem to get you out of my mind,
I keep tossing and turning, yearning for the sun to shine.

I’d like to send you a ticket on the dreamland express,
And take you far away with me,
I’ve got a vision of heaven, and you’re living there with me.

REPEAT CHORUS


Intro / out (1 octave higher)

E ---10---3---2---0---2---0------------------------------0---3----5----3-----2----0--|
B -------------------------------------3----0----1----3------------------------------|
G------------------------------------------------------------------------------------|
D------------------------------------------------------------------------------------|
A------------------------------------------------------------------------------------|
E------------------------------------------------------------------------------------|

E ---10---3---2---0---2---0------------------------------0---3----5--|
B -------------------------------------3----0----1----3--------------|
G--------------------------------------------------------------------|
D--------------------------------------------------------------------|
A--------------------------------------------------------------------|
E--------------------------------------------------------------------|
Tap to rate this tab
# A B C D E F G H I J K L M N O P Q R S T U V W X Y Z