Song name
# A B C D E F G H I J K L M N O P Q R S T U V W X Y Z

John Denver - Leaving On A Jet Plane tab

Hey, I saw this amazing version on Youtube, but couldn't find any tabs so thought I
would try and tab it out myself..

I think it's fairly close, I'm just missing a few notes, mainly because I can't play
them quickly enough.

This is the Youtube version.. (which is far superior to my version)

http://www.youtube.com/watch?v=KfEsPIMbC6M

Okay, so it's standard tuning, place the capo wherever sounds best for you. I normally
put it on the 3rd. Here's the Verse, Pre-Chorus and Chorus, and you can arrange it
yourself i guess. (Watch the video for help with fingerings, I always struggle with 
using the thumb for the base 'F')


Verse

      C                F                C                F

-----|1---0-----------|----------------|1---0-----------|----------------|
-1h3-|-----3-----1----|---1h3-----1----|-----3-----1----|---1h3-----1----|
-----|----------------|0h2-------------|----------------|0h2-------------|
-----|----2-------2---|----3-------3---|----2-------2---|----3-------3---|
-----|3-------3-------|----------------|3-------3-------|----------------|
-----|----------------|1-------1-------|----------------|1-------1-------|

      bags are..     ..ready..    ..i'm waiting.......outSIDE..

 C       C/B      Am               G                G

|1---0-----------|0h1p0-----------|----------------|----------------|
|------3-----1---|------3-----1---|3-----1---1-----|3---------------|
|----------------|----------------|2-----2---2-----|2---------------|
|----2-------0---|----0-------0---|----0-------0---|----------------|
|3-------2-------|----------------|----------------|--------0---2---|
|----------------|1-------2-------|3-------3-------|3---3-----------|

already..      ..lonesome...    ...cry



Pre-Chorus

 C                F                C                F

|3-----0---0-3---|1---0-----------|3---1-0-----3---|1---0-----------|
|1---------------|------1-----3---|----------------|------1-----3---|
|----------------|----------------|----------------|----------------|
|----2-------2---|----3-------3---|----2-------2---|----3-------3---|
|3-------3-------|----------------|3-------3-------|----------------|
|----------------|1-------1-------|----------------|1-------1-------|

..kiss me...    ..smile..      ....tell me..    ....wait...

 C                F                G                G

|3---1-0-----3---|0h1p0-----------|----------------|----------------|
|----------------|------3-----1---|3-----1---1-----|3-------0h1-1h3-|
|----------------|----------------|2-----2---2-----|2---0h2---------|
|----2-------2---|----0-------0---|----0-------0---|----------------|
|3-------3-------|----------------|----------------|----------------|
|----------------|1-------2-------|3-------3-------|3-------3-------|

..hold..        ..never..       ...go

G                G                G                G

----------------|----------------|----------------|--------3-------|
3-----1---1---3-|--------0h1-1h3-|3-----1---1-----|3---------------|
2-----2---2---2-|----0h2---------|2-----2---2-----|----------------|
----0-------0---|----------------|----0-------0---|----0-----------|
----------------|----------------|----------------|----------------|
3-------3-------|3---------------|3-------3-------|3---------------|




Chorus

 C                F                C                F

|3-----0-----3/5-|5---3-1-----3---|----3---0---3---|1---3-1---0-----|
|1---------------|----------------|----------------|------------1---|
|----------------|----------------|----------------|----------------|
|----2-------2---|----3-------3---|----2-------2---|----3-------3---|
|3-------3-------|----------------|3-------3-------|----------------|
|----------------|1-------1-------|----------------|1-------1-------|

..leaving..     ..on a..            ...dont..     ..I'll..

 C                Am               G                G

|----3---0---3---|0h1p0-----------|----------------|----------------|
|----------------|------3-----1---|3-----1---1-----|3-------0h1-1h3-|
|----------------|----------------|2-----2---2-----|2---0h2---------|
|----2-------2---|----0-------0---|----0-------0---|----------------|
|3-------3-------|----------------|----------------|----------------|
|----------------|1-------2-------|3-------3-------|3-------3-------|

             Oh...babe..        ...go.

 G                G                G                G

|----------------|----------------|----------------|----------------|
|3-----1---1-----|3-------0h1-1h3-|3-----1---1-----|3---------------|
|2-----2---2-----|2---0h2---------|2-----2---2-----|----------------|
|----0-------0---|----------------|----0-------0---|----------------|
|----------------|----------------|----------------|--------0---2---|
|3-------3-------|3---------------|3-------3-------|3---3-----------|


(Ending)

|--------0------------------------0---|
|3-----------3--1--3----------1--1----|
|---------------------------0---0-----|
|----0--------------------2-----------|
|-----------------------3-------------|
|3------------------------------------|
Tap to rate this tab
# A B C D E F G H I J K L M N O P Q R S T U V W X Y Z