Guitaretab - guitar tabs
Song name
# A B C D E F G H I J K L M N O P Q R S T U V W X Y Z

John Dowland - Melancholy Galliard tab

Saw this song on youtube, and i loved it.
I noticed that there is a major shortage of
people transcribing lute music for guitars.
Its terrible, because the music sounds great
on guitar.  Any feedback, trouble, contact me
at bocz2134@alvernia.edu


E--0-1-3-4~--3~-1-0-3-1~-3-4-6-8~--6~----------|
B--------6~--5~-------1~-------9~--8~----------|
G--------5~--5~-------x--------8~--8~----------|
D---------------------3~-----------------------|
A----------------------------------------------|
E----------------------------------------------|
[ Tab from: http://www.guitaretab.com/j/john-dowland/181148.html ]
E--4-3-6-4~--6-8-9-11~--9~--8~--6~~~~----------|
B--------4~--------13~--11~-9~--8~~~~----------|
G--------5~--------12~--10~-8~--8~~~~----------|
D----------------------------------------------|
A----------------------------------------------|
E----------------------------------------------|

E--8--6--4~--3-1-0-1~~~-----slow---------------|
B--9--8--6~---------1~~~----pick---------------|
G--8--8--5~----------x------last---------------|
D--------------------3~~~---chord--------------|
A----------------------------------------------|
E----------------------------------------------|
Related for Melancholy Galliard tab
Advertisement will be closed in 10 seconds