Song name
# A B C D E F G H I J K L M N O P Q R S T U V W X Y Z

John Elton - Im Still Standing tab

|------------------------------------------------------------------------------|
|------------------------------------------------------------------------------|
|-------------------------3---5^-5^r--3---3------------3----5^-5^r--3----3-3---|
|----3--3--3-----3-3--3/5---5-----------5----------3/5---5------------5--------|
|--1--1--1--1------------------------------------------------------------------|
|------------------------------------------------------------------------------|

|--------3-3-3---------5-5-5---------6-6-6----------8-8-8----------------------|
|--------4-4-4---------6-6-6----6s8--8-8-8----8s10--8-8-8-----13^-13^r--11-----|
|---1s3--5-5-5----3s5--5-5-5---------8-8-8----------8-8-8---------12-----------|
|------------------------------------------------------------------------------|
|------------------------------------------------------------------------------|
|------------------------------------------------------------------------------|

|----13----------|
|--13^--13^r--11-|
|----------------|       Last Part is not correct but it's a try!
|----------------|
|----------------|
|----------------|
Tap to rate this tab
 
# A B C D E F G H I J K L M N O P Q R S T U V W X Y Z