Song name
# A B C D E F G H I J K L M N O P Q R S T U V W X Y Z

John Elton - The Last Song tab

:::::::::::::::::::::::::::::::::The Last Song:::::::::::::::::::::::::::::::
:::::::::::::::::::::::::::::Thousand Foot Krutch::::::::::::::::::::::::::::
Tabbed by: Aung

Alrighty,this is my solo tab for "The Last Song"(hidden track)which comes in after "Wish 
Well" (at 4:06)
 /  slide up
 \  slide down
 h  hammer-on
 p  pull-off
 ~  vibrato
 +  harmonic
 x  Mute note

The 1st solo comes in after: "This is the last song....."
E----------2h3p2--------------------------2h3p2-------------------|
B--3-3-5p3------5-3-5-5/7--5-5-3--3-3-5p3-------5-3-3/5-3-5-5/7-3-|
G-----------------------------------------------------------------|
D-----------------------------------------------------------------|
A-----------------------------------------------------------------|
E-----------------------------------------------------------------|

E----------2h3p2--------------------------2h3p2-5-----------------|
B--3-3-5p3------5-3-5-5/7--5-5-3--3-3-5p3--------3-7/8-7-5-7-8----|
G-----------------------------------------------------------------|
D-----------------------------------------------------------------|
A-----------------------------------------------------------------|
E-----------------------------------------------------------------|
                                                              "I remember..."


The 2nd solo(outro)
E----------2h3p2--------------------------2h3p2-------------------|
B--3-3-5p3------5-3-5-5/7--5-5-3--3-3-5p3-------5-3-3/5-3-5-5/7-3-|
G-----------------------------------------------------------------|
D-----------------------------------------------------------------|
A-----------------------------------------------------------------|
E-----------------------------------------------------------------|

E----------2h3p2--------------------------2h3p2-5-----------------|
B--3-3-5p3------5-3-5-5/7--5-5-3--3-3-5p3--------3-7/8-7-5-5/7-3--|
G-----------------------------------------------------------------|
D-----------------------------------------------------------------|
A-----------------------------------------------------------------|
E-----------------------------------------------------------------|
Tap to rate this tab
 
# A B C D E F G H I J K L M N O P Q R S T U V W X Y Z