Song name
# A B C D E F G H I J K L M N O P Q R S T U V W X Y Z

John Elton - Your Song tab

interpret:  Elton John
song:       Your Song
album:      The Very Best Of Elton John
capo:       2
setting:    Standart

zu verwendende Akkorde:

  D     Dsus  Em    F#m   G     G6    Gsus2   A   A/C#  A/D   Asus  Bm/G  Bm/G# Bm/A

e|--2--|--3--|--0--|--2--|--3--|--0--|--3--|--0--|--0--|--0--|--0--|--2--|--2--|--2--|
B|--3--|--3--|--0--|--2--|--0--|--0--|--3--|--2--|--2--|--2--|--3--|--3--|--3--|--3--|
G|--2--|--2--|--0--|--2--|--0--|--0--|--0--|--2--|--2--|--2--|--2--|--4--|--4--|--4--|
D|--0--|--0--|--2--|--4--|--0--|--0--|--0--|--2--|--2--|--0--|--2--|--4--|--4--|--4--|
A|--x--|--x--|--2--|--4--|--2--|--2--|--0--|--0--|--4--|--0--|--0--|--x--|--x--|--0--|
E|--x--|--x--|--0--|--2--|--3--|--3--|--3--|--0--|--x--|--x--|--0--|--3--|--4--|--x--|

Intro:

  D            Dsus        A           Gsus2   
e|-2-----2-----3-----3-----0-----0-----3-----3-------|
B|---3-----3-----3-----3-----2-----2-----3-----3---3-|
G|-----2-----2-----2-----2-----2-----2-----0---------|
D|-0-----0-----0-----0-----2-----2-----0-----0---0---|
A|---------------------------------------------------|
E|---------------------------------------------------|

Strophe 1:

  D                Bm/G            A/C#            F#m
e|-2-----2-----2---2-----2-----2---0-----0-----0---2-----2-----2---|
B|---3-----3-----3---3-----3-----3---2-----2-----2---2-----2-----2-|
G|-----2-----2---------4-----4---------2-----2---------2-----2-----|
D|-0---------------------------------------------------------------|
A|---------------------------------4---------------4---------------|
E|-----------------3-----------------------------------------------|
   It's a little bit funny             this feeling inside

  Bm               Bm/A            Bm/G#           G
e|-2-----2-----2---2-----2-----2---2-----2-----2---3-----3-----3---|
B|---3-----3-----3---3-----3-----3---3-----3-----3---0-----0-----0-|
G|-----4-----4---------4-----4---------4-----4----------0-----0----|
D|-----------------------------------------------------------------|
A|-2---------------0-----------------------------------------------|
E|---------------------------------4---------------3---------------|
     I'm not one of those       who can easily     hide

  D                A               F#m             Bm
e|-2-----2-----2---0-----0-----0---2-----2-----2---2-----2-----2---|
B|---3-----3-----3---2-----2-----2---2-----2-----2---3-----3-----3-|
G|-----2-----2---------2-----2---------2-----2---------4-----4-----|
D|-0---------------------------------------------------------------|
A|-----------------0---------------4---------------2---------------|
E|-----------------------------------------------------------------|
   I don't have much money         but boy if I    did

  D                Em              G               A                 Asus  A
e|-2-----2-----2---0-----0-----0---3-----3-----3---0-----0-----0---|-----------------|
B|---3-----3-----3---0-----0-----0---0-----0-----0---2-----2-----2-|-3-----2-----2---|
G|-----2-----2---------0-----0---------0-----0---------2-----2-----|---2-----2-----2-|
D|-0---------------------------------------------------------------|-----2-----2-----|
A|-------------------------------------------------0---------------|-0---------------|
E|-----------------0---------------3-------------------------------|-----------------|
   I'd buy a big house where       we both could live.

Strophe 2:

  D                Bm/G            A/C#            F#m
e|-2-----2-----2---2-----2-----2---0-----0-----0---2-----2-----2---|
B|---3-----3-----3---3-----3-----3---2-----2-----2---2-----2-----2-|
G|-----2-----2---------4-----4---------2-----2---------2-----2-----|
D|-0---------------------------------------------------------------|
A|---------------------------------4---------------4---------------|
E|-----------------3-----------------------------------------------|
    If I was a sculptor,            but then again, no

  Bm               Bm/A            Bm/G#           G
e|-2-----2-----2---2-----2-----2---2-----2-----2---3-----3-----3---|
B|---3-----3-----3---3-----3-----3---3-----3-----3---0-----0-----0-|
G|-----4-----4---------4-----4---------4-----4----------0-----0----|
D|-----------------------------------------------------------------|
A|-2---------------0-----------------------------------------------|
E|---------------------------------4---------------3---------------|
Or a man who makes potions in a            travelling show

  D                A               F#m            Bm
e|-2-----2-----2---0-----0-----0---2-----2-----2---2-----2-----2---|
B|---3-----3-----3---2-----2-----2---2-----2-----2---3-----3-----3-|
G|-----2-----2---------2-----2---------2-----2---------4-----4-----|
D|-0---------------------------------------------------------------|
A|-----------------0---------------4---------------2---------------|
E|-----------------------------------------------------------------|
     I know it's not much but it's the best I can do

  D                Em              G               D                 Dsus  D
e|-2-----2-----2---0-----0-----0---3-----3-----3---2-----2-----2---|-3-----2-----2---|
B|---3-----3-----3---0-----0-----0---0-----0-----0---3-----3-----3-|---3-----3-----3-|
G|-----2-----2---------0-----0---------0-----0---------2-----2-----|-----2-----2-----|
D|-0-----------------------------------------------0---------------|-0---------------|
A|-----------------------------------------------------------------|-----------------|
E|-----------------0---------------3-------------------------------|-----------------|
    My gift is my song and         this one's for you.

Refrain:

   A/C#            Bm              Em              G
e|-0-----0-----0---2-----2-----2---0-----0-----0---3-----3-----3---|
B|---2-----2-----2---3-----3-----3---0-----0-----0---0-----0-----0-|
G|-----2-----2---------4-----4---------0-----0---------0-----0-----|
D|-----------------------------------------------------------------|
A|-4---------------2-----------------------------------------------|
E|---------------------------------0---------------3---------------|
   And you can tell everybody      this is your song

   A/C#            Bm              Em              G
e|-0-----0-----0---2-----2-----2---0-----0-----0---3-----3-----3---|
B|---2-----2-----2---3-----3-----3---0-----0-----0---0-----0-----0-|
G|-----2-----2---------4-----4---------0-----0---------0-----0-----|
D|-----------------------------------------------------------------|
A|-4---------------2-----------------------------------------------|
E|---------------------------------0---------------3---------------|
    It may be quite simple but     now that it's done

   Bm              Bm/A            Bm/G#           G6
e|-2-----2-----2---2-----2-----2---2-----2-----2---0-----0-----0---|-0-|
B|---3-----3-----3---3-----3-----3---3-----3-----3---0-----0-----0-|-0-|
G|-----4-----4---------4-----4---------4-----4---------0-----0-----|-0-|
D|-----------------------------------------------------------------|-0-|
A|-2---------------0-----------------------------------------------|-2-|
E|---------------------------------4---------------3---------------|-3-|
 I hope you don't mind, I hope you don't mind; that I put down in words

   D               G6              G               A                 Asus  A
e|-2-----2-----2---0-----0-----0---3-----3-----3---0-----0-----0---|-----------------|
B|---3-----3-----3---0-----0-----0---0-----0-----0---2-----2-----2-|-3-----2-----2---|
G|-----2-----2---------0-----0---------0-----0---------2-----2-----|---2-----2-----2-|
D|-0---------------------------------------------------------------|-----2-----2-----|
A|-------------------------------------------------0---------------|-0---------------|
E|-----------------3---------------3-------------------------------|-----------------|
    How wonderful life is while you're in the world.

   D               Dsus            A/D             Gsus2
e|-2-----2-----2---3-----3-----3---0-----0-----0---3-----3-----3---|
B|---3-----3-----3---3-----3-----3---2-----2-----2---3-----3-----3-|
G|-----2-----2---------2-----2---------2-----2---------0-----0-----|
D|-0---------------0---------------0---------------0---------------|
A|-----------------------------------------------------------------|
E|-----------------------------------------------------------------|

Strophe 3:

D            Bm/G  A/C#                   F#m
I sat on the roof      and kicked off the moss
Bm                   Bm/A  Bm/G#                           G
Well a few of the verses,        well they've got me quite cross
D                        A   F#m                      Bm
But the sun's been quite kind      While I wrote this song
A                     Em  G                     A   Asus A
It's for people like you    that keep it turned on.

Strophe 4:

D            Bm/G       A/C#                   F#m
So excuse me forgetting     but these things I do
Bm           Bm/A     Bm/G#                             G
You see I've forgotten      if they're green or they're blue
D                A  F#m               Bm
Anyway the thing is     what I really mean
D             Em       G                D     Dsus D
Yours are the sweetest   eyes I've ever seen.

Refrain:

A/C#             Bm        Em              G
And you can tell everybody    this is your song
A/C#                   Bm  Em               G
It may be quite simple but    now that it's done
Bm                     Bm/A 
I hope you don't mind, I hope you don't mind
Bm/G               G6    G
That I put down in words

   D               G6              G               A                 Asus  A
e|-2-----2-----2---0-----0-----0---3-----3-----3---0-----0-----0---|-----------------|
B|---3-----3-----3---0-----0-----0---0-----0-----0---2-----2-----2-|-3-----3-----3---|
G|-----2-----2---------0-----0---------0-----0---------2-----2-----|---2-----2-----2-|
D|-0---------------------------------------------------------------|-----2-----2-----|
A|-------------------------------------------------0---------------|-0---------------|
E|-----------------3---------------0-------------------------------|-----------------|
   How wonderful life is while    you're in the    world.
Bm                     Bm/A 
I hope you don't mind, I hope you don't mind
Bm/G               G6
That I put down in words

   D               G6              G               D                 
e|-2-----2-----2---0-----0-----0---3-----3-----3---0-----0-----0---|
B|---3-----3-----3---0-----0-----0---0-----0-----0---2-----2-----2-|
G|-----2-----2---------0-----0---------0-----0---------2-----2-----|
D|-0---------------------------------------------------------------|
A|-------------------------------------------------0---------------|
E|-----------------3---------------0-------------------------------|
   How wonderful   life is while   you're in the   world.

End:

e|-3-----3-----3---0-----0-----0---3-----3-----3-------2-|
B|---3-----3-----3---2-----2-----2---3-----3-----3----3--|
G|-----2-----2---------2-----2---------0-----0-------2---|
D|-0---------------0---------------0----------------0----|
A|-------------------------------------------------------|
E|-------------------------------------------------------|


----------------------------------------------------------------

die akkorde sind garnicht so leicht zu greifen; viel spaß dabei, ich hoffe, der tab ist richtg.

tabbed by Master_Pi
Tap to rate this tab
# A B C D E F G H I J K L M N O P Q R S T U V W X Y Z