Song name
# A B C D E F G H I J K L M N O P Q R S T U V W X Y Z

John Farnham - Youre The Voice tab

This is the same part as my other tab, just on different strings, and maybe a bit easier 
play. Again, I'm not all that familiar with writing the timing, but its easy to figure 
you play along with the song.


Tabbed by: George Aitken
Email: drummer777@gmail.com

Tuning: E A D G B e

e|----------------------------------------------------------------------------|
B|---15--15-13--13-15----15-13----13-15-18---16--15-13----13-------18--16--15-|
G|-15--15-------------15-------15----------------------15----15-13------------|
D|----------------------------------------------------------------------------|
A|----------------------------------------------------------------------------|
E|----------------------------------------------------------------------------|

e|----------------------------------------------------------------------------|
B|-13----13-------------------------------------------------------------------|
G|----15----15-13-13-17-15----------------------------------------------------|
D|----------------------------------------------------------------------------|
A|----------------------------------------------------------------------------|
E|----------------------------------------------------------------------------|

                              (X2)

Repeat this sequence twice, picking up 15 on the B string immediately after playing 15 
the G string. Basically, repeat back to the beginning, just leave off the first 15 on the repeat.
Tap to rate this tab
# A B C D E F G H I J K L M N O P Q R S T U V W X Y Z