Song name
# A B C D E F G H I J K L M N O P Q R S T U V W X Y Z

John Farnham - Youre The Voice tab

--------------------------------------------------------------------------
	            YOU'RE THE VOICE - John Farnham
--------------------------------------------------------------------------

Tabbed by: Tim Norton
Email: t_n46@hotmail.com
Date: 31.10.09

Tuning: Standard EADGBe Capo on 1.

Can't believe there hasn't been a decent tab of this legendary
song on the net!

Enjoy!



Capo on 1st fret.



INTRO:

E (repeated till very end)    D   A (at very end of intro)



VERSE 1:

E                                        D    A

We have the chance to turn the pages over

E                                        
We can write what we want to write

                                                D      A
We gotta make ends meet, before we get much older



PRE CHORUS:

A  B  A  B  A
               We're all someone's daughter

A  B  A               B    A
      We're all someone's son

    A B A                    B    A
How long can we look at each other

A  B  A                    A   B                                   
      Down the barrel of a gun?

 

CHORUS:

E
You're the voice, try and understand it

Make a noise and make it clear

D                      A
Woo-oh-wo-oh-wo-oh-wo, woo-oh-oh-wo-oh-wo-oh-wo-oh-wo-oh

E
We're not gonna sit in silence

We're not gonna live with fear

D                      A
Woo-oh-wo-oh-wo-oh-wo, woo-oh-oh-wo-oh-wo-oh-wo-oh-wo-oh



VERSE 2:

E                                      D      A
This time, we know we all can stand together

E
With the power to be powerful

                         D      A
Believing we can make it better



PRE CHORUS:

A  B  A  B  A
               We're all someone's daughter

A  B  A               B    A
      We're all someone's son

    A B A                    B    A
How long can we look at each other

A  B  A                    A   B                                   
      Down the barrel of a gun?



CHORUS:

E
You're the voice, try and understand it

Make a noise and make it clear

D                      A
Woo-oh-wo-oh-wo-oh-wo, woo-oh-oh-wo-oh-wo-oh-wo-oh-wo-oh

E
We're not gonna sit in silence

We're not gonna live with fear

D                      A
Woo-oh-wo-oh-wo-oh-wo, woo-oh-oh-wo-oh-wo-oh-wo-oh-wo-oh



SOLO:

||-----11-11----11-11-9-11----11--11-11-9----9-11--14-12-11-9--|
||--12-------12------------12-------------12-------------------|
||-------------------------------------------------------------|
||-------------------------------------------------------------|
||-------------------------------------------------------------|
||-------------------------------------------------------------|


|-----9--------14-12-11-9----9-----------9--------|
|--12---12-10-------------12---12-10--12---10-12--|
|-------------------------------------------------|
|-------------------------------------------------|
|-------------------------------------------------|
|-------------------------------------------------|


|--11-11----11-11-9-11----11--11-11-9----9-11--14-12-11-9--|
|--------12------------12-------------12-------------------|
|----------------------------------------------------------|
|----------------------------------------------------------|
|----------------------------------------------------------|
|----------------------------------------------------------|


|-----9--------14-12-11-9----9-----------9--------||
|--12---12-10-------------12---12-10--12---10-12--||
|-------------------------------------------------||
|-------------------------------------------------||
|-------------------------------------------------||
|-------------------------------------------------||



PRE CHORUS:

A  B  A  B  A
               We're all someone's daughter

A  B  A               B    A
      We're all someone's son

    A B A                    B    A
How long can we look at each other

A  B  A                    A   B                                   
      Down the barrel of a gun?



CHORUS:

E
You're the voice, try and understand it

Make a noise and make it clear

D                      A
Woo-oh-wo-oh-wo-oh-wo, woo-oh-oh-wo-oh-wo-oh-wo-oh-wo-oh

E
We're not gonna sit in silence

We're not gonna live with fear

D                      A
Woo-oh-wo-oh-wo-oh-wo, woo-oh-oh-wo-oh-wo-oh-wo-oh-wo-oh



(Repeat CHORUS till end)



CHORDS IN RELATION TO CAPO (1st FRET):

   E   D   A   B
|--0---2---0---2-----|
|--0---3---2---4-----|
|--1---2---2---4-----|
|--2---0---2---4-----|
|--2---x---0---2-----|
|--0---x---x---x-----|


Though of course you can play without a capo, the above 
chords become:

   F   D#  A#  C
|--1---3---1---3-----|
|--1---4---3---5-----|
|--2---3---3---5-----|
|--3---1---3---5-----|
|--3---x---1---3-----|
|--1---x---x---x-----|
Tap to rate this tab
# A B C D E F G H I J K L M N O P Q R S T U V W X Y Z