Song name
# A B C D E F G H I J K L M N O P Q R S T U V W X Y Z

John Fogerty - Cenerfield tab

Help us improve GuitareTab! Take a short survey!
E|--------------------------|--------------------------|
B|----------------------3---|----------------------0---|
G|-----------0-----2-0------|-----------0-----2-0------|
D|---------2---0-4--------0-|---------2---0-4--------0-| x2
A|---0-2-3------------------|---0-2-3------------------|
E|-3------------------------|-3------------------------|

E|--------------------------|
B|----------------------3---|
G|-----------0-----2-0------|
D|---------2---0-4--------0-|
A|---0-2-3------------------|
E|-3------------------------|

E|--------------------------------------------|
B|--------------------------------------------|
G|---0---0------------------------------------|
D|-------------------------0-0-0-0-0-0-0-0----|
A|-3---2---0-0-0-0-0-0-0-0--------------------|
E|------------------------------------------3-|
Let that G (E-3) ring, or just play it a bunch of times.
Related for Cenerfield tab