Song name
# A B C D E F G H I J K L M N O P Q R S T U V W X Y Z

John Fogerty - I Cant Take It No More tab

John Fogerty - I Can't Take It No More

tempo - 174

Chords for whole song:


F

e|---------------------------------|--------------------------------------|
B|---------------------------------|--------------------------------------|
G|--10--10--10--10--10--10--10--10-|-9/10--10--10--10--10--10--10--10-----|
D|--10--10--10--10--10--10--10--10-|-9/10--10--10--10--10--10--10--10-----|
A|--8---8---8---8---8---8---8---8--|-7/8---8---8---8---8---8---8---8------|
E|---------------------------------|--------------------------------------|

e|----------------------------------|-------------------------------------|
B|----------------------------------|-------------------------------------|
G|-9/10--10--10--10--10--10--10--10-|-9/10--10--10--10--10--10--10--10----|
D|-9/10--10--10--10--10--10--10--10-|-9/10--10--10--10--10--10--10--10----|
A|-7/8---8---8---8---8---8---8---8--|-7/8---8---8---8---8---8---8---8-----|
E|----------------------------------|-------------------------------------|

C

e|---------------------------------|--------------------------------------|
B|---------------------------------|--------------------------------------|
G|---------------------------------|--------------------------------------|
D|--10--10--10--10--10--10--10--10-|--10--10--10--10--10--10--10--10------|
A|--10--10--10--10--10--10--10--10-|--10--10--10--10--10--10--10--10------|
E|--8---8---8---8---8---8---8---8--|--8---8---8---8---8---8---8---8-------|

e|---------------------------------|--------------------------------------|
B|---------------------------------|--------------------------------------|
G|--10--10--10--10--10--10--10--10-|-10-----------------------------------|
D|--10--10--10--10--10--10--10--10-|-10-----------------------------------|
A|--8---8---8---8---8---8---8---8--|-8------------------------------------|
E|---------------------------------|--------------------------------------|

N.C.                F
I Can't Take It No More

I Can't Take It No More
                             C 
I'm sick and tired of your dirty little war
                    F
I Can't Take It No More

You know you lied about the casualties
You know you lied about the WMD's
You know you lied about the detainees
All over this world

Stop talking about staying the course
You keep a-beating that old dead horse
You know you lied about how we went to war
I Can't Take It No More

I can't take it
I can't take it

I bet you never saw the old school yard
I bet you never saw the national guard
Your daddy wrote a check and there you are
Another fortunate son

I can't take it no more
I can't take it no more
I'm sick and tired of your dirty little war
I can't take it no more
Tap to rate this tab
# A B C D E F G H I J K L M N O P Q R S T U V W X Y Z