Song name
# A B C D E F G H I J K L M N O P Q R S T U V W X Y Z

John Fogerty - The Old Man Down The Road tab

-------------------------------------------------------------------------------
			     Old Man Down the Road – John Fogerty
-------------------------------------------------------------------------------
Tabbed by: drhark
Email: drharkins@yourspinalhealth.com

Main Riff: E pentatonic with a “blue note” thrown in (Bb)
e|---------------------------------------------------------------------------|
B|---------------------------------------------------------------------------|
G|--0-2-2b(4)-0---------------------0-2-2b(4)(4)-2-0-------------------------|
D|--------------2--------2---2-----------------------2--------2---2----------|
A|----------------1-0----------------------------------1-0-------------------|
E|--------------------3----0-------------------------------3----0------------|

Solo: E7 chord
e|----16-----16-16-----16-16\------------------------------------------------|
B|-----------15-15-----15-15\------------------------------------------------|
G|-16----16--------16--------------------------------------------------------|
D|---------------------------------------------------------------------------|
A|---------------------------------------------------------------------------|
E|---------------------------------------------------------------------------|

e|---------------------------------------------------------------------------|
B|-2-0---2-0---2-0---2-0-----------------------------------------------------|
G|-2-0---2-0---2-0---2-0-----------------------------------------------------|
D|-----2-----2-----2---------------------------------------------------------|
A|---------------------------------------------------------------------------|
E|---------------------------------------------------------------------------|

            C       D           Em
Chorus: The old man is down the road

| /  slide up
| \  slide down
| h  hammer-on
| p  pull-off
| ~  vibrato
| +  harmonic
| x  Mute note

OK I had to chime in here because the other tabs for this song are absolutely 
Not sure it’s perfect but I only had 2 minutes to figure it out.
it’s a heck of a lot closer than the others
Tap to rate this tab
 
# A B C D E F G H I J K L M N O P Q R S T U V W X Y Z