Song name
# A B C D E F G H I J K L M N O P Q R S T U V W X Y Z

John Fogerty - Summer Of Love tab

this is the tab for the song "summer of love" from the new album "revival", just listen 
the song and you'll find the timing

intro....repet twice
E------------------------------------|-----------------------------------|
B------------------------------------|------------8b10-8b10--------------|
G---10-7--7---7----------------------|--10--7--7-------------10-7-10-----|
D-----------7---10--7----------------|-----------------------------------|
A---------------------10--8----------|-----------------------------------|
e------------------------------------|-----------------------------------|


first riff
E------------------------------------|-----------------------------------|
B------------------------------------|-----------------------------------|
G---------------10-------------------|-----7-----------------------------|
D---12-12-10-12----------------------|---7---10--7-----------------------|
A-12---------------------------------|--------------10---8---------------|
e------------------------------------|-----------------------------------|
Tap to rate this tab
# A B C D E F G H I J K L M N O P Q R S T U V W X Y Z