Song name
# A B C D E F G H I J K L M N O P Q R S T U V W X Y Z

John Forte - The Breaking Of A Man tab

Song written by John Forte! Support John Forte!

This is the riff throughout the whole song.
Enjoy. Comment if something is wrong... :)


e---------------|---------------------|
B---------4-----|---------------------|
G------------5--|----3----------------|
D------5--------|-3-----1--0----------|
A---3-----------|---------------------|
E---------------|---------------------|

e---------------|---------------------|
B---------4-----|--------------------.|
G------------5--|---------------------|
D------5--------|-5h6p5--1--0--------.|
A---3-----------|---------------------|
E---------------|---------------------|

http://www.johnforte.com/
Tap to rate this tab
# A B C D E F G H I J K L M N O P Q R S T U V W X Y Z