Song name
# A B C D E F G H I J K L M N O P Q R S T U V W X Y Z

John Frusciante - Going Inside tab

Intro: 2x
    Gm       C
E|--3-3-3-3--3-3-3-3------------------------------------------|
B|--3-3-3-3--5-5-5-5------6--------3--------6--------3--------|
G|--3-3-3-3--5-5-5-5------------------------------------------|
D|--5-5-5-5--5-5-5-5----8---8----5---5----8---8----5---5------|
A|--5-5-5-5--3-3-3-3--6--------3--------6--------3------------|
E|--3-3-3-3--3-3-3-3------------------------------------------|

Bridge

E|--6--1------------------6--1----------------|
B|--6--1--4--11-11-11-11--6--1--4--8-8-8-8-8--|
G|--7--2--5--12-12-12-12--7--2--5--8-8-8-8-8--|
D|--8--3--5--12-12-12-12--8--3--5--8-8-8-8-8--|
A|--8--3--3--10-10-10-10--8--3--3--6-6-6-6-6--|
E|--6--1------------------6--1----------------|

Gm                             F            C
You don't throw your life away
          D#7M
Going inside
You get to know who's watching you
And who besides you resides
In your body
Where you're slow
Where you go doesn't matter
Cuz there will come a time
When time goes out the window
A#                                           F
And you'll learn to drive out of focus
       Cm   G+
I'm you
         A#             F
and if anything unfolds
           cm           D#
it's supposed to

Intro 2x.

Gm                             F
You don't throw your time away
         C     D#7M
sitting still
I'm in a chain of memories
It's my will
And I had to consult some figures of my past
And I know someone after me
Will go right back
A#          F         Cm     G+
I'm not telling a view
A#          F         Cm     D#
I've got this night to unglue
A#          F         Cm     G+
I moved this fight away
A#          F         Cm
By doing things there's no reason to do

Outro

   A# F  C
E|--6--1----------------------------------------------------------------|
B|--6--1--5-5-5-5-5-5------6--------3--------6--------3-----------------|
G|--7--2--5-5-5-5-5-5---------------------------------------------------|
D|--8--3--5-5-5-5-5-5----8---8----5---5----8---8----5---5--3-3-3-3-3-3--|
A|--8--3--3-3-3-3-3-3--6--------3--------6--------3--------3-3-3-3-3-3--|
E|--6--1---------------------------------------------------1-1-1-1-1-1--|

E|---------------------------------------------------------3-----|
B|-----6--------3--------6--------3--------6--------3------3-----|
G|---------------------------------------------------------3-----|
D|---8---8----5---5----8---8----5---5----8---8----5---5----5-----|
A|-6--------3--------6--------3--------6--------3----------5-----|
E|---------------------------------------------------------3-----|

D#7M (xx1333)
Tap to rate this tab
 
# A B C D E F G H I J K L M N O P Q R S T U V W X Y Z