Song name
# A B C D E F G H I J K L M N O P Q R S T U V W X Y Z

John Frusciante - Leaving You tab

======================================
 John Frusciante - "Leaving You" 1:04
======================================
 Transcribed by Luka Zitnik
 lukazit@hotmail.com


  G     Cm     G#
--3--|-3----|----4-|-3----|----4-|
--3--|--4---|---4--|--4---|---4--|
--4--|---5--|--5---|---5--|--5---|   2X
--5--|----5-|-6----|----5-|-6----|
--5--|------|------|------|------|
--3--|------|------|------|------|



  A#    G#    Cm
--6--|--4--|--3--|
--6--|--4--|--4--|
--7--|--5--|--5--| 2X as well
--8--|--6--|--5--|
--8--|--6--|--3--|(tip: hold Cm shortly, try with hitting it only two times)
--6--|--4--|--3--|



  Cm    G#
--3--|--4--|
--4--|--4--|
--5--|--5--|
--5--|--6--|
--3--|--6--|
--3--|--4--|



  Cm    G#
--3--|---4-|
--4--|--4--|
--5--|-5---|
--5--|-----|
--3--|-----|
--3--|-----|

End with Cm.

============================================================
============================================================
Tap to rate this tab
# A B C D E F G H I J K L M N O P Q R S T U V W X Y Z