Song name
# A B C D E F G H I J K L M N O P Q R S T U V W X Y Z

John Frusciante - Loss tab

By John Frusciante

Intro/Verse
I won't bother too much with the rhythm, since it's about as basic as you can get.
Not that that's a bad thing.

e|--------------------------|
B|--------------------------|
G|-------9-9--6-6--4-4--2-2-|
D|--7-7--9-9--6-6--4-4--4-4-|
A|--7-7--7-7--4-4--4-4--4-4-|
E|--5-5---------------------|

Chorus:

I think the time must change in the chorus.

e|--7--9--|
B|--9--10-|
G|--9--11-|  X3
D|--9--11-|
A|--7--9--|
E|--------|

then->

e|--5--5--9---7-|
B|--7--5--10--9-|
G|--7--6--11--9-|
D|--7--7--11--9-|
A|--5--7--9---7-|
E|-----5--------|

The whole chorus is repeated two times, then back to the verse.

Bridge/Outro:

e|--5--7--7-|--5--7--5-|
B|--5--9--7-|--5--9--7-|
G|--6--9--7-|--6--9--7-|
D|--7--9--9-|--7--9--7-|
A|--7--7--9-|--7--7--5-|
E|--5-----7-|--5-------|

That's the whole song, except the little solo at the end. Fairly simple, but it's mostly 
by the awesome vocal melodies.
Tap to rate this tab
 
# A B C D E F G H I J K L M N O P Q R S T U V W X Y Z