Song name
# A B C D E F G H I J K L M N O P Q R S T U V W X Y Z

John Frusciante - Hope tab

Help us improve GuitareTab! Take a short survey!
Verse (play 2 times)
E|-----------------------------------------------------------------------|
B|--------4-----------------4------------------2-----------------4-------|
G|--------4-----------------4------------------3-----------------4-------|
D|-----------------------------------------------------------------------|
A|---------------------2---------2---------------------------------------|
E|---4---------4-------------------------2-----------2------4---------4--|
       


E|-----------------------------------------------------------------------|
B|-------5-----------------4--------------------------------------4------|
G|-------6-----------------4-------------------8------------------4------|
D|---------------------------------------------8-------------------------|
A|--4---------4--------------------------6----------6--------------------|
E|--------------------4---------4----------------------------4--------4--|
                
   
                
    
Chorus 
E|---------4-----------3---------4------------------4--------3--------------|
B|---------4-----------4---------4---------5--------4--------4-------4------|
G|---------4-----------3---------4---------6--------4--------3-------4------|
D|---------6---------------------6---------6--------6-----------------------|
A|-----------------------------------------4--------------------------------|
E|--------------------------------------------------------------4---------4-|
          

 
E|----------------------------------------------------------------------|
B|-----------------------------------------4------------------4---------|
G|--------9----------------8---------------3------------------4---------|
D|--------9----------------9----------5----------5----------------------|
A|---7--------7---------------------------------------------------------|
E|--------------------7---------7------------------------4---------4----|


Final chord
E|-----4--------|
B|-----4--------|          
G|-----4--------|
D|-----6--------|
A|-----6--------|            
E|-----4--------|
Related for Hope tab