Song name
# A B C D E F G H I J K L M N O P Q R S T U V W X Y Z

John Frusciante - Control tab

Intro
e------------------|
B-----4---4---4----|
G-------5---5---5--|
D---5----5---5---5-|
A-3----------------|x4
E------------------|
Riff
e------------------------------------|
B-----4----44---3-1-----4---4---4----|
G-------5--55-3-3-2-------5---5---5--|
D---5----5-55-5-3-3---5----5---5---5-|
A-3--------33-5-1-3-3----------------|x4
E-------------3---1------------------|

e------------------------------------------------------------------------|
B-3-3-33-11-11-4444-44-3-3-33-11-11-4-4-44-------3-3-33-11-11-4----------|
G-3-3-33-22-22-5555-55-3-3-33-22-22-5-5-55-33-33-3-3-33-22-22-5----------|
D-3-3-33-33-33-5555-55-3-3-33-33-33-5-5-55-55-55-3-3-33-33-33-5----------|
A-1-1-11-33-33-3333-33-1-1-11-33-33-3-3-33-55-55-1-1-11-33-33-3----------|
E--------11-11----------------11-11--------33-33--------11-11------------|
The first 4 Cm you play really soft.
Riff
e------------------------------------|
B-----4----44---3-1-----4---4---4----|
G-------5--55-3-3-2-------5---5---5--|
D---5----5-55-5-3-3---5----5---5---5-|
A-3--------33-5-1-3-3----------------|x4
E-------------3---1------------------|

e------------------------------------------------------------------------|
B-3-3-33-11-11-4444-44-3-3-33-11-11-4-4-44-------3-3-33-11-11-4----------|
G-3-3-33-22-22-5555-55-3-3-33-22-22-5-5-55-33-33-3-3-33-22-22-5----------|
D-3-3-33-33-33-5555-55-3-3-33-33-33-5-5-55-55-55-3-3-33-33-33-5----------|
A-1-1-11-33-33-3333-33-1-1-11-33-33-3-3-33-55-55-1-1-11-33-33-3----------|
E--------11-11----------------11-11--------33-33--------11-11------------|
The first 4 Cm you play really soft.
e--------------------------|
B-8-8-88-8-44444444-----3~-|
G-7-7-77-7-55555555-----3~-|
D-8-8-88-8-55555555--x3-3~-|
A-6-6-66-6-33333333-----1~-|
E--------------------------|
I'm pretty sure you can figure out the rest it's the same thing most of the song.
Tap to rate this tab
 
# A B C D E F G H I J K L M N O P Q R S T U V W X Y Z