Song name
# A B C D E F G H I J K L M N O P Q R S T U V W X Y Z

John Frusciante - How Deep Is Your Love tab

-------------------------------------------------------------------------------
"How Deep is Your Love"
As performed by John Frusciante
Written by The Bee Gees
-------------------------------------------------------------------------------
Tabbed by: jake987722
Email: jake987722@hotmail.com

Alright, I was looking over some of the tabs/chords for this song and I noticed
that, although a couple were pretty close, there was a still a few chords that
were off. So I painstakingly tabbed it out myself, using Youtube videos of 5
separate performances as references to make sure I was playing the exact same
voicings as John. The result is, I feel, at least the most accurate transcription
on the Web, although  realistically I can't 100% guarantee it note-for-note.

The tune is in standard tuning, in the key of Eb. As noted by another transcriber,
John plays the vast majority of the notes on the low E string with his thumb. I
did not include the strumming patterns in this tab (it's not complicated), I only
included the chord voicings/names and lyrics.

Tuning: standard

Intro x 2   "aaahhhhhhh......"
 Eb    Ebmaj7  Abmaj7 Bbsus4
---------------3----------------------------|
-8-----8-------4----------------------------|
-8-----7-------5------8---------------------|
-8-----8-------6------8---------------------|
-6-----6-------x------8---------------------|
---------------4------6---------------------|

You know your eyes in the morning sun
              Eb          Gm         Fm7
-------------------------------------8-----|
--------------8----------------------9-----|
--------------8-----------3----------8-----|
--------------8-----------5----------x-----|
--------------6-----------5----------8-----|
--------------------------3----------------|

I feel you touch  me in the pouring rain
Gsus4           Fm7         G7          Bbsus4
----------------8----------------------------|
----------------9----------------------------|
5---------------8-----------10----------8----|
5---------------x-----------9-----------8----|
5---------------8-----------10----------8----|
3---------------------------------------6----|

And the mo-ment that you wander far  from me
          EB             Gm        Cm
----------------------------------------------|
----------8--------------3---------4----------|
----------8--------------3---------5----------|
----------8--------------5---------5----------|
----------6--------------5---------3----------|
-------------------------3--------------------|

I wanna feel you in my arms again
        Fm                       Bsus4
---------------------------------------|
---------------------------------4-----|
--------1------------------------3-----|
--------3------------------------3-----|
--------3------------------------1-----|
--------1------------------------------|

And you come to me on a su-mmer breeze
            Ab            Gm
--------------------------------------|
--------------------------------------|
------------5-------------3-----------|
------------6-------------5-----------|
------------6-------------5-----------|
------------4-------------3-----------|

Keep me warm in your love then you soft-ly leave
            Fm                         Dbmaj7
-------------------------------------------------|
---------------------------------------6---------|
------------1--------------------------5---------|
------------3--------------------------6---------|
------------3--------------------------4---------|
------------1------------------------------------|

And it's me you need to show   How deep is your love?
         Gm                  Bbsus4
----------------------------------|
----------------------------------|
---------3-------------------8----|
---------5-------------------8----|
---------5-------------------8----|
---------3-------------------6----|

  Is your love, how deep is your love?
Eb                      Ebmaj7
-----------------------------------------|
8-----------------------8----------------|
8-----------------------7----------------|
8-----------------------8----------------|
6-----------------------6----------------|
-----------------------------------------|

I really need to learn
Abmaj7                Abdim
3---------------------4------------|
4---------------------6------------|
5---------------------4------------|
6---------------------x------------|
x---------------------x------------|
4---------------------4------------|

'Cause we're living in a world of fools
             Eb                        Bbm7
-------------6-------------------------6-------------|
-------------8-------------------------6-------------|
-------------8-------------------------6-------------|
-------------8-------------------------6-------------|
-------------6-------------------------4-------------|
-----------------------------------------------------|

Breaking us down
            C7
------------6----------------------|
------------5----------------------|
------------5----------------------|
------------5----------------------|
------------3----------------------|
-----------------------------------|

When they all should let us be
                              Gm Fm
------------------------------------|
------------------------------3--1--|
------------------------------3--1--|
------------------------------5--3--|
------------------------------5--3--|
------------------------------3--1--|
(Note: for some performances, John replaces these two chords with
a single Fm chord: 4656xx )

We belong to you and me
         Abm
---------4--------------------------|
---------4--------------------------|
---------4--------------------------|
---------6--------------------------|
---------6--------------------------|
------------------------------------|

    na na naaaa na na            aaahhhhhhh
Eb        Gm         Bbsus4
---------------------------|
8--------------------------|
8---------3----------8-----|
8---------5----------8-----|
6---------5----------8-----|
----------3----------6-----|

How deep is your love, how deep is your love
    Eb                         Ebmaj7
------------------------------------------------|
----8--------------------------8----------------|
----8--------------------------7----------------|
----8--------------------------8----------------|
----6--------------------------6----------------|
------------------------------------------------|

I really need to learn
Abmaj7                Abdim
3---------------------4------------|
4---------------------6------------|
5---------------------4------------|
6---------------------x------------|
x---------------------x------------|
4---------------------4------------|

'Cause we're living in a world of fools
             Eb                        Bbm7
-------------6-------------------------6-------------|
-------------8-------------------------6-------------|
-------------8-------------------------6-------------|
-------------8-------------------------6-------------|
-------------6-------------------------4-------------|
-----------------------------------------------------|

Breaking us down
            C7
------------6----------------------|
------------5----------------------|
------------5----------------------|
------------5----------------------|
------------3----------------------|
-----------------------------------|

When they all should let us be
                              Gm Fm
------------------------------------|
------------------------------3--1--|
------------------------------3--1--|
------------------------------5--3--|
------------------------------5--3--|
------------------------------3--1--|
(Note: for some performances, John replaces these two chords with
a single Fm chord: 4656xx )

We belong to you and me
         Abm
---------4--------------------------|
---------4--------------------------|
---------4--------------------------|
---------6--------------------------|
---------6--------------------------|
------------------------------------|

    na na naaaa na na         aaahhhhhhh
Eb        Gm         Bbsus4         Eb
--------------------------------------------|
8-----------------------------------8-------|
8---------3----------8--------------8-------|
8---------5----------8--------------8-------|
6---------5----------8--------------6-------|
----------3----------6----------------------|

| /  slide up
| \  slide down
| h  hammer-on
| p  pull-off
| ~  vibrato
| +  harmonic
| x  Mute note
============================================================================
Tap to rate this tab
 
# A B C D E F G H I J K L M N O P Q R S T U V W X Y Z