Song name
# A B C D E F G H I J K L M N O P Q R S T U V W X Y Z

John Frusciante - Falling tab

these two parts are played througout the whole song, with some little variations that 
could figure out for phrase 2.  i use a capo on the 6th fret cause its just easier, and it 
better to have the strings ringing out as you change the chord.


phrase 1
|---------------------------------------------|
|---------------------------------------------|
|-----6-8-----6-8--------6-8-----6-8---6-8----|
|---------------------------------------------|
|-6-6-----6-6-----6-6--6-----6-6-----6--------|
|---------------------------------------------|

phrase 2
|------------------------6----|
|------------------------7----|
|-----------8------6---8------|
|-----8---8-----8----8--------|
|---9---6-----9---------------|
|-7---------------------------|
Tap to rate this tab
# A B C D E F G H I J K L M N O P Q R S T U V W X Y Z