Song name
# A B C D E F G H I J K L M N O P Q R S T U V W X Y Z

John Frusciante - Latest Disgrace tab

tabbed by maxrox92
john frusciante-fugazi-latest disgrace (cover)
he plays this before parallel universe on the live at slane castle dvd.


  Q=125

  E  E E  Q   E Q    E  E  E  E  E  E  E  E
|------------------|------------------------|
|------------------|---10-10-10-10-10-10-10-|
|------8--------8--|---10-10-10-10-10-10-10-|
|------8--------8--|-x-10-10-10-10-10-10-10-|
|------------------|-x--8--8--8--8--8--8--8-|
|-8h10---10--10----|-x----------------------|


    E  E E  Q   E E E   E  E  E  E E  E  E  E
||--------------------|-----------------------|
||o-------------------|-----------------------|
||-------8--------8---|-----------------------|
||-------8--------8---|-----------------------|
||o-------------------|-----------------10-12-|
||--8h10---10--10---0-|-8-10-11-10-8-10-------|


  E  E E  Q   E Q    E  E  E  E  E  E  E  E
|------------------|--------------------------||
|------------------|---10-10-10-10-10-10-10--o||
|------8--------8--|---10-10-10-10-10-10-10---||
|------8--------8--|-x-10-10-10-10-10-10-10---||
|------------------|-x--8--8--8--8--8--8--8--o||
|-8h10---10--10----|-x------------------------||
Tap to rate this tab
# A B C D E F G H I J K L M N O P Q R S T U V W X Y Z