Song name
# A B C D E F G H I J K L M N O P Q R S T U V W X Y Z

John Frusciante - How High tab

Help us improve GuitareTab! Take a short survey!
-------------------------------------------------------------------------------
			     HOW HIGH - John Frusciante
-------------------------------------------------------------------------------
Tabbed by: chatlo77	
Email: brenton_chattin@hotmail.com

Tuning: Standard (EADGBe)

Verse: 0:00 - "We met you through your fortune"

e|---------------------------------------------------------------------------|
B|--------3------------2-----------------------------------------------------|
G|--------4------------2-----------------------------------------------------|
D|-----4--4------------4-----------------------------------------------------| x4
A|---2----2--------2---4-----------------------------------------------------|
E|--------------2------2-----------------------------------------------------|
       Bm           F#m
    

Chorus 0:12 - "How High, How High"
e|---------------------------------------------------------------------------|
B|------7--------------------------8-----------------------------------------|
G|---------7---------6---------------9----------4----------------------------|
D|----7-----------------7--------9----------------5--------------------------| x2
A|--5--------------7----------7--------------5-------------------------------|
E|--------------5-------------------------3----------------------------------|
    D           A              Em         G    
 0:23
e|---------------------------------------------------------------------------|
B|--------3------------2-----------------------------------------------------|
G|--------4------------2-----------------------------------------------------| x2
D|-----4--4------------4-----------------------------------------------------| 
A|---2----2--------2---4-----------------------------------------------------|
E|--------------2------2-----------------------------------------------------|
     Bm        F#m

Verse 2: 0:28 - "You leave the past in a field"

e|---------------------------------------------------------------------------|
B|--------3------------2-----------------------------------------------------|
G|--------4------------2-----------------------------------------------------|
D|-----4--4------------4-----------------------------------------------------| x4
A|---2----2--------2---4-----------------------------------------------------|
E|--------------2------2-----------------------------------------------------|
     Bm         F#m
  
Chorus 2: 0:40 "How High, How High"
e|---------------------------------------------------------------------------|
B|------7--------------------------8-----------------------------------------|
G|---------7---------6---------------9----------4----------------------------|
D|----7-----------------7--------9----------------5--------------------------| x2
A|--5--------------7----------7--------------5-------------------------------|
E|--------------5-------------------------3----------------------------------|

e|---------------------------------------------------------------------------|
B|--------3------------2-----------------------------------------------------|
G|--------4------------2-----------------------------------------------------| x4
D|-----4--4------------4-----------------------------------------------------| 
A|---2----2--------2---4-----------------------------------------------------|
E|--------------2------2-----------------------------------------------------|
    

End on
e|---------------------|
B|---3-----------------|
G|---4-----------------|
D|---4-----------------|
A|---2-----------------|
E|---------------------|
    Bm

Short Simple song, Tabbed it for those of you who don't have Guitar Pro or PTE.

cheers.


| /  slide up
| \  slide down
| h  hammer-on
| p  pull-off
| ~  vibrato
| +  harmonic
| x  Mute note
===============================================================================
Related for How High tab